Song name
# A B C D E F G H I J K L M N O P Q R S T U V W X Y Z

Jank 1000 - Helpless X2 tab

Listen to the song for the order. It's pretty easy and fun to play !
It's 100% correct I think

Intro (clean) :

e|--------------------------------|
B|--------------------------------|
G|--------------------------------|
D|-3-3-2-3-3-3-2-3-3-3-2-3-2/5----|
A|--------------------------------|
E|--------------------------------|

2nd parts of intro (distortion):

e|----------------------------------------------------------|
B|----------------------------------------------------------|
G|-55-5-55-5------------------------------------------------|
D|-55-5-55-5------------------------------------------------|
A|-33-3-33-3--3-3-3-3-3-2-3-3-3-3-3-3-2-3-3-3-3-3-2-3-2/5---|
E|----------------------------------------------------------|
   ..   ..    . . .         . . .       . . .


2nd guitar plays this :

e|-------------------------------------------|
B|-------------------------------------------|
G|-------------------------------------------|
D|-3-----------7-------------8-----10--------|
A|-3-----------7-------------8-----10--------|
E|-1-----------5-------------6-----8---------|

Verse :
Same as the 2nd guitar. Listen to the song for the strumming


Pre-chorus :

e|--------------------|
B|--------------------|
G|-55555555555555-----|
D|-55555555555555-----|
A|-33333333333333-----|
E|--------------------|
   ..........

Chorus :

e|-----------------------------------------------------------------|
B|-----------------------------------------------------------------|
G|-7-7-7-7-7-7-7-7-------------------------------------------------|
D|-7-7-7-7-7-7-7-7-8-8-8-8-8-8-8-8-3-3-3-3-3-3-3-3-7-7-7-7-7-7-7-7-|
A|-5-5-5-5-5-5-5-5-8-8-8-8-8-8-8-8-3-3-3-3-3-3-3-3-7-7-7-7-7-7-7-7-|
E|-----------------6-6-6-6-6-6-6-6-1-1-1-1-1-1-1-1-5-5-5-5-5-5-5-5-|

e|------------------|
B|------------------|
G|-7-7-7-7-7-7-7----|
D|-7-7-7-7-7-7-7-8--|
A|-5-5-5-5-5-5-5-8--|
E|---------------6--|


Bridge :

e|----------------------|
B|----------------------|
G|-55555555-3-555555555-|
D|-55555555-3-555555555-|
A|-33333333-1-333333333-|
E|----------------------|
   ........    ........


Solo :

e|-----------------------------------------------|
B|-----------------------------------------------|
G|-----------------------------------------------|
D|-----------------------------------------------|
A|-----------------------------------------------|
E|-1-3-5-6-5-6-8-6-5-6-5-6-5----8-6-5-6-5-6-1----|
Tap to rate this tab
 
# A B C D E F G H I J K L M N O P Q R S T U V W X Y Z