Song name
# A B C D E F G H I J K L M N O P Q R S T U V W X Y Z

Jank 1000 - Misty 540 tab

-------------------------------------------------------------------------------
			     MISTY 540 - Jank 1000
-------------------------------------------------------------------------------
Tabbed by: Ben A
Email: benbowlsbeamers@msn.com

Tuning: Standard						Play this 
								part first
								time only!
Intro (x2) Let last power chord ring.				^^^^^^^^^^
e|-----------------------------------------------------------|---------------|
B|-----------------------------------------------------------|---------------|
G|----------------------------------------------------------9|-9-99999-9-9---|
D|9911-11-1111997-7-77992-2-22222-2-2-9911-11-1111997-7-77999|-9-99999-9-9---|
A|9911-11-1111997-7-77992-2-22222-2-2-9911-11-1111997-7-77997|-7-77777-7-7---|
E|779--9--9-9-775-5-55770-0-00000-0-0-779--9--9-9-775-5-5577-|---------------|

Pre Verse Pt 1
e|-----|-----------|-------------|-----------|-------------|-----------------|
B|-----|----x3-----|-------------|----x2-----|-------------|-----------------|
G|-----|-----------|-------------|-----------|-------------|-----------------|
D|-----|-----------|-------------|-----------|-------------|---7-7-6---------|
A|--7--|-7/9-7-6-7-|-7-7/9-7-6-7-|-7/9-7-6-7-|-7-7/9-7-6-7-|-7-------9-------|
E|-----|-----------|-------------|-----------|-------------|-----------------|

Pre Verse Pt 2
e|---------------------------------------------------------------------------|
B|---------------------------------------------------------------------------|
G|---------------------------------------------------------------------------|
D|-2-222-2---------7-777-7---------2-222-2---------7-777-7-7-6---------------|
A|-2-222-2-6-7-9-7-7-777-7-6-7-9-7-2-222-2-6-7-9-7-7-777-7-----9-7-----------|
E|-0-000-0---------5-555-5---------0-000-0---------5-555-5-------------------|

Verse Pt 1
e|---------------------------------------------------------------------------|
B|---------------------------------------------------------------------------|
G|-9-99-999-9-99-999-9-99-999-9-99-999---------------------------------------|
D|-9-99-999-9-99-999-9-99-999-9-99-999-99-9999-99-9999-7x--------------------|
A|-7-77-777-7-77-777-7-77-777-7-77-777-99-9999-99-9999-7x--------------------|
E|-------------------------------------77-7777-77-7777-5x--------------------|
PM                                       |----|  |----|

Verse Pt 2                                         
e|---------------------------------------------------------------------------|
B|---------------------------------------------------------------------------|
G|---------------------------------------------------------------------------|
D|-22-2222-22-2222-22-2222-22-2222---(Whole Verse x2 unless specified)-------|
A|-22-2222-22-2222-22-2222-22-2222-------------------------------------------|
E|-00-0000-00-0000-00-0000-00-0000-------------------------------------------|
PM   |----|  |----|  |----|  |----|

Chorus
e|---------------------------------------------------------------------------|
B|---------------------------------------------------------------------------|
G|---------99999999--------99999999--------99999999--------------99999999----|
D|-999999999999999999999999999999999999999999999999--11111111999999999999----|
A|-999999997777777799999999777777779999999977777777--11111111999977777777----|
E|-77777777--------77777777--------77777777----------9-9-9-9-7777------------|

e|---------------------------------------------------------------------------|
B|---------------------------------------------------------------------------|
G|-------------99999999-------------99999999-------------9-------------------|
D|-11111111999999999999-11111111999999999999-1111111199999-Let ring----------|
A|-11111111999977777777-11111111999977777777-1111111199997-------------------|
E|-9-9-9-9-7777----------9-9-9-97777---------9-9-9-9-7777--------------------|

Post-Chorus (1)
e|-----|-----------|---------------------------------------------------------|
B|-----|----x3-----|---------------------------------------------------------|
G|-----|-----------|---------------------------------------------------------|
D|-----|-----------|---77-66-------------------------------------------------|
A|--7--|-7/9-7-6-7-|-7-------99-7--------------------------------------------|
E|-----|-----------|---------------------------------------------------------|

Repeat Whole Verse (x2)
Repeat Chorus

Post-Chorus (2)
e|-----|-----------|---------------------------------------------------------|
B|-----|----x7-----|---------------------------------------------------------|
G|-----|-----------|---------------------------------------------------------|
D|-----|-----------|---77-66-------------------------------------------------|
A|--7--|-7/9-7-6-7-|-7-------99-7--------------------------------------------|
E|-----|-----------|---------------------------------------------------------|

Repeat Pre Verse Pt 2
Repeat Verse (x1)

Verse (Altered)
e|---------------------------------------------------------------------------|
B|---------------------------------------------------------------------------|
G|-9-------------------------------------------------------------------------|
D|-9-Let Ring------99-9999-99-9999-7x--22-2222-22-2222-22-2222-22-2222-------|
A|-7---------------99-9999-99-9999-7x--22-2222-22-2222-22-2222-22-2222-------|
E|-----------------77-7777-77-7777-5x--00-0000-00-0000-00-0000-00-0000-------|
PM                   |----|  |----|      |----|  |----|  |----|  |----|

Repeat Chorus

------------------------------------------------------------------------------

Thats it! Feel free to e-mail me if you have any questions or suggestions.


| /  slide up
| \  slide down
| h  hammer-on
| p  pull-off
| ~  vibrato
| +  harmonic
| x  Mute note
===============================================================================
Tap to rate this tab
 
# A B C D E F G H I J K L M N O P Q R S T U V W X Y Z