Song name
# A B C D E F G H I J K L M N O P Q R S T U V W X Y Z

Janne Schaffer - Bromma Struttin tab

Help us improve GuitareTab! Take a short survey!
Janne Schaffer
Bromma Struttin
from album Katharsis
tabbed by Almir Nametak, mokra@freenetname.co.uk


I believe that these are all notes needed , it's the best i could do.
Apologies for poor tabbing..


E----------------------------------------------------------------------------|
B-10--87-7-----------------------------5-------------------------------------|
G-------9-7-9-5-754-54---------------45-75/7/54------------------------5-----|   x2
D----------------------7-5-7--------5----------5757------------------57-7----|
A----------------------------753-5-7---------------75357353----355/7---------|
E----------------------------------------------------------5-35--------------|


E------------------------------------------------------------------------|
B----13-16-151613-------------------13-16-151613-18/20/18-16-15----------|
G----------------151713-121312-------------------------------------------|
D--15-------------------------15--15-------------------------------------|
A------------------------------------------------------------------------|
E------------------------------------------------------------------------|


E------------------------------------------------------------------------|
B----13-16-151613-------------------13-16-151613-------------------------|
G----------------151713-121312------------------151713-121312------------|
D--15-------------------------15--15-------------------------15----------|
A------------------------------------------------------------------------|
E------------------------------------------------------------------------|


E----11-101110--10--------11-13-10-11----11-101110-10--------------------|
B-------------13--13-11-13-----------------------13--13-11--13/15-13-----|
G------------------------------------------------------------------------|    x2
D------------------------------------------------------------------------|
A------------------------------------------------------------------------|
E------------------------------------------------------------------------|

E------------------------------------------------------------------------|
B----8-9-10--------------------------------------------------------------|
G-----------7-8-9--------------------------------------------------------|
D-----------------5-6-7--------------------------------------------------|
A----------------------5-6-7---------------------------------------------|
E------------------------------------------------------------------------|
Related for Bromma Struttin tab