Song name
# A B C D E F G H I J K L M N O P Q R S T U V W X Y Z

Jansch Bert - Harvest Your Thoughts Of Love tab

Help us improve GuitareTab! Take a short survey!
Tabbed by Jamie Phillips (jamiephillips22@hotmail.com)

Artist: Bert Jansch
Track title: Harvest Your Thoughts of Love
Album: It Don't Bother Me
Tuning: EADGBE (standard)
Capo: 3rd Fret

This is a simple tune to play and really nice. Great for beginner Bert fans! 
Basically I've just tabbed out the introduction, as he plays exactly the 
same thing during the verses with the exception of repeating a bar here and 
there. Listen to the recording to hear how it fits with the lyrics. There is 
also a little ending run.

Rhythm: 4/4


Beat:*    *     *     *       *    *     *     *  
E||------------------------|--0---------------------|
B||----------------0-------|----------------0-------|
G||----------0h-2----------|----------0-------------|
D||-------0-----------0----|-------2-----------2----|
A||------------------------|------------------------|
E||--3----------3----------|--0----------0----------|


   *    *     *     *       *    *     *     * 
E------------------------|------------------------|
B--3-------------3-------|----------------2-------|
G----------0-------------|----------0-------------|
D-------3-----------3----|-------2-----------2----|
A--1----------1----------|--0----------0----------|
E------------------------|------------------------|


   *    *     *     *       *    *     *     * 
E------------------------|--0---------------------|
B----------------3-------|----------------2-------|
G----------0-------------|----------0-------------|
D-------3-----------3----|-------2-----------2----|
A--1----------1----------|--0----------0----------|
E------------------------|------------------------|

   *    *     *     *       *    *     *     * 
E------------------------|--1---------------------|Repeat
B----------------3-------|----------------3-------|bar
G----------0-------------|----------0-------------|during
D-------3-----------3----|-------3-----------3----|verse
A--1----------1----------|--2----------2----------|
E------------------------|------------------------|


   *    *     *     *       *    *     *     *  
E--0---------------------|----------1-------------|
B----------0-----1-------|----------------3-------|
G------------------------|-------2-----------2----|
D-------2-----------2----|--3----------3----------|
A--0----------0----------|------------------------|
E------------------------|------------------------|


   *     *     *     *       *    *     *     * 
E--1--------1-------------|--1-------------1-------|
B-----3-----------3-------|----------3-------------|
G--------2-----------2----|-------0-----------0----|
D--3-----------3----------|--3----------3----------|
A-------------------------|------------------------|
E-------------------------|------------------------|

last time go to ending:
   *    *     *     *       *    *     *     * 
E--1-------------1-------|--0---------------------|
B----------3-------------|----------0-----1-------|
G-------0-----------0----|------------------------|
D--3----------3----------|-------2-----------2----|
A------------------------|--0----------0----------|
E------------------------|------------------------|


   *    *     *     *       *    *     *     * 
E------------------------|------------------------|
B--0-------------0-------|----------3-------------|
G----------0h-2----------|----------------4-------|
D-------0-----------0----|-------4-----------4----|
A------------------------|--2----------2----------|
E--3----------3----------|------------------------|


   *    *     *     *       *    *     *     * 
E------------------------|--0---------------------|
B----------------1-------|----------------1-------|
G----------2-------------|----------2-------------|
D-------2-----------2----|-------2-----------2----|
A--0----------0----------|--0----------0----------|
E------------------------|------------------------|


Ending: (slower)                                
E--1p-0--------------------|----||
B--------3-----------------|----||
G-----------2p-0-----------|----||
D-----------------3--------|----||
A--------------------2-----|----||
E-----------------------1--|----||

TAB guide: h = hammer on, p = pull off
Related for Harvest Your Thoughts Of Love tab