Song name
# A B C D E F G H I J K L M N O P Q R S T U V W X Y Z

Janus - Eyesore tab

I dont think I got the first verse completely dead on but it sounds pretty close. 




Tuning: Dropped C

C G C F A D

Intro 1

D |------------------------|
A |------------------------|
F |------------------------|
C |3-3--3-3---10-10--10-10-|
G |3-3--3-3---10-10--10-10-|
C |3-3--3-3---10-10--10-10-|


Intro 2

D |----------------------------------------|
A |----------------------------------------|
F |----------------------------------------|
C |----------------------------------------|
G |-----7-7H8----5-5H7----3-3H5----2H3P2P0-|
C |--0-0------0-0------0-0------0-0--------|

D |---------------------------------------|
A |---------------------------------------|
F |---------------------------------------|
C |-----------------------------3-3--3-3--|
G |-----7-7H8----5-5H7----3-3H5-3-3--3-3--|
C |--0-0------0-0------0-0------3-3--3-3--|

D |----------------------------------------|
A |----------------------------------------|
F |----------------------------------------|
C |----------------------------------------|
G |-----7-7H8----5-5H7----3-3H5----2H3P2P0-|
C |--0-0------0-0------0-0------0-0--------|

D |----------------------------------------------|
A |----------------------------------------------|
F |----------------------------------------------|
C |--------------------3-3--3-3---10-10--10-10-0-|
G |-----7-7H8----5-5H7-3-3--3-3---10-10--10-10-0-|
C |--0-0------0-0------3-3--3-3---10-10--10-10-0-|


Verse 1

D |-------------------------------------------------------------------------------------------
A |-------------------------------------------------------------------------------------------
F |----10-9h10----10-9h10----10-9h10----12-9h10----10-9h10----10-9h10----10-9h10--------------
C |-0-0--------0-0--------0-0--------0-0--------0-0--------0-0--------0-0--------0-0-10-10h12-
G |-------------------------------------------------------------------------------------------
C |-------------------------------------------------------------------------------------------

D |---------------------------------------------------------------------------------|
A |-----------------------------------------------------------------------10-----10-|
F |----10-9h10----10-9h10----10-9h10----12-9h10--9h10--9h10h12--9h10--9h10---9h10---|
C |-0-0--------0-0--------0-0--------0-0--------0-----0--------0-----0------0-------|
G |---------------------------------------------------------------------------------|
C |---------------------------------------------------------------------------------|


Pre-Chorus

D |--------------------------------------------------------|
A |--------------------------------------------------------|
F |--------------------------------------------------------|
C |-88-33-55-88-33-55-88-33-55-77-3-3--3-3---10-10---10-10-|
G |-88-33-55-88-33-55-88-33-55-77-3-3--3-3---10-10---10-10-|
C |-88-33-55-88-33-55-88-33-55-77-3-3--3-3---10-10---10-10-|


Chorus

D |----------------------------------------|
A |----------------------------------------|
F |----------------------------------------|
C |----------------------------------------|
G |-----7-7H8----5-5H7----3-3H5----2H3P2P0-|
C |--0-0------0-0------0-0------0-0--------|

D |---------------------------------------|
A |---------------------------------------|
F |---------------------------------------|
C |-----------------------------3-3--3-3--|
G |-----7-7H8----5-5H7----3-3H5-3-3--3-3--|
C |--0-0------0-0------0-0------3-3--3-3--|

D |----------------------------------------|
A |----------------------------------------|
F |----------------------------------------|
C |----------------------------------------|
G |-----7-7H8----5-5H7----3-3H5----2H3P2P0-|
C |--0-0------0-0------0-0------0-0--------|

D |----------------------------------------------|
A |----------------------------------------------|
F |----------------------------------------------|
C |--------------------3-3--3-3---10-10--10-10-0-|
G |-----7-7H8----5-5H7-3-3--3-3---10-10--10-10-0-|
C |--0-0------0-0------3-3--3-3---10-10--10-10-0-|


Verse 2

D |--------------------------------------------------------------------------------|
A |--------------------------------------------------------------------------------|
F |--------------------------------------------------------------------------------|
C |--------------------------------------------------------------------------------|
G |-555555131313131310101010101212121212555555131313131313101010101010151515151515-|
C |--------------------------------------------------------------------------------|x2


Pre-Chorus

D |--------------------------------------------------------|
A |--------------------------------------------------------|
F |--------------------------------------------------------|
C |-88-33-55-88-33-55-88-33-55-77-3-3--3-3---10-10---10-10-|
G |-88-33-55-88-33-55-88-33-55-77-3-3--3-3---10-10---10-10-|
C |-88-33-55-88-33-55-88-33-55-77-3-3--3-3---10-10---10-10-|


Chorus

D |----------------------------------------|
A |----------------------------------------|
F |----------------------------------------|
C |----------------------------------------|
G |-----7-7H8----5-5H7----3-3H5----2H3P2P0-|
C |--0-0------0-0------0-0------0-0--------|

D |---------------------------------------|
A |---------------------------------------|
F |---------------------------------------|
C |-----------------------------3-3--3-3--|
G |-----7-7H8----5-5H7----3-3H5-3-3--3-3--|
C |--0-0------0-0------0-0------3-3--3-3--|

D |----------------------------------------|
A |----------------------------------------|
F |----------------------------------------|
C |----------------------------------------|
G |-----7-7H8----5-5H7----3-3H5----2H3P2P0-|
C |--0-0------0-0------0-0------0-0--------|

D |------------------------------------|
A |------------------------------------|
F |------------------------------------|
C |--------------------3-3--3-3---10-0-|
G |-----7-7H8----5-5H7-3-3--3-3---10-0-|
C |--0-0------0-0------3-3--3-3---10-0-|


Bridge

D |---------------------|
A |---------------------|
F |---------------------|
C |---------------------|
G |---------------------|
C |-0-0-0--0-0-0--0-0-0-|x4

D |---------------------|
A |---------------------|
F |---------------------|
C |---------------------|
G |---------------------|
C |-0-0-1--0-0-0--0-0-0-|

D |---------------------|
A |---------------------|
F |---------------------|
C |---------------------|
G |---------------------|
C |-0-0-0--0-0-0--0-0-0-|x2
 

Pre-Chorus

D |----------------------------------------------|
A |----------------------------------------------|
F |----------------------------------------------|
C |-88-33-55-88-33-55-77-------------------3-5-7-|
G |-88-33-55-88-33-55-77--------5-6-7-3-5-7------|
C |-88-33-55-88-33-55-77-0-5-6-7-----------------|


Chorus

D |----------------------------------------|
A |----------------------------------------|
F |----------------------------------------|
C |----------------------------------------|
G |-----7-7H8----5-5H7----3-3H5----2H3P2P0-|
C |--0-0------0-0------0-0------0-0--------|

D |---------------------------------------|
A |---------------------------------------|
F |---------------------------------------|
C |-----------------------------3-3--3-3--|
G |-----7-7H8----5-5H7----3-3H5-3-3--3-3--|
C |--0-0------0-0------0-0------3-3--3-3--|

D |----------------------------------------|
A |----------------------------------------|
F |----------------------------------------|
C |----------------------------------------|
G |-----7-7H8----5-5H7----3-3H5----2H3P2P0-|
C |--0-0------0-0------0-0------0-0--------|

D |----------------------------------------------|
A |----------------------------------------------|
F |----------------------------------------------|
C |--------------------3-3--3-3---10-10--10-10-0-|
G |-----7-7H8----5-5H7-3-3--3-3---10-10--10-10-0-|
C |--0-0------0-0------3-3--3-3---10-10--10-10-0-|


Outro

D |----------------------------------------|
A |----------------------------------------|
F |----------------------------------------|
C |----------------------------------------|
G |----------------------------------------|
C |-0-0-0-0-0-0-0-0-0-0-0-0-0-0-0-0-0-0-0--|
|
Tap to rate this tab
 
# A B C D E F G H I J K L M N O P Q R S T U V W X Y Z