Janus - Six Letters Sent tab

Six Letters Sent - Janus

Tuned to Drop C (low to high) CGCFAD

Intro
D------------------------------------------------------------------------------------------------|
A------------------------------------------------------------------------------------------------|
F------------------------------------------------------------------------------------------------|
C-7--5--0--5--7--5--8--0--7--5--0--5--7--5--8--0--7--5--0--5--7--5--8--0---3--3--3--8--8--0--0--1|
G-7--5--0--5--7--5--8--0--7--5--0--5--7--5--8--0--7--5--0--5--7--5--8--0---3--3--3--8--8--0--0--1|
C-7--5--0--5--7--5--8--0--7--5--0--5--7--5--8--0--7--5--0--5--7--5--8--0---3--3--3--8--8--0--0--1|

(2x) but on second time do not play the last C# chord

Verse
D-------------------------------------------|
A-------------------------------------------|
F-------------------------------------------|
C--14-12-12-14-12-12-14-12------------------|
G-------------------------------------------|
C-------------------------------------------|
Pm all
Itís hard to distinguish if he does this or just 10. He also uses some sort of effect to it.

(7x)

D-------------------------------------------|
A-----------------------[14-14-14]----------|
F-----------------------[14-14-14]----------|
C---14-12-12-12-12--------------------------|
G-------------------------------------------|
C-------------------------------------------|
Pm  -  -  -  -  -
Intro riff again

Chorus
D----------------------------------------------------------------------------------------|
A----------------------------------------------------------------------------------------|
F----------------------------------------------------------------------------------------|
C--5--5--5--5--5----8--8--8--8--8--------1-1-1-1-1-1-1-1-1-1-1-1-1-1-1-1-----------------|
G--5--5--5--5--5----8--8--8--8--8--------1-1-1-1-1-1-1-1-1-1-1-1-1-1-1-1-----------------|
C--5--5--5--5--5----8--8--8--8--8--------1-1-1-1-1-1-1-1-1-1-1-1-1-1-1-1-----------------|

(3x)

The first and second chord are staccato on 3rd time
D-----------------------------------------------------------------------------------------------|
A------------------------------------------------------------------13---------------------------|
F--------------------------------------------------------12-14-15--------14b--------------------|
C--5--5--5--5--5-----8--8--8--8--8-------------12-14-15-----------------------------------------|
G--5--5--5--5--5-----8--8--8--8--8----12-14-----------------------------------------------------|
C--5--5--5--5--5-----8--8--8--8--8--------------------------------------------------------------|

                                                                        ^^Slight slow 
played continuously

Verse (w/o natural harmonics at end)

Intro riff

Chorus (just hold 14 at end rather than bending)

Bridge
D---------------------------------------------------|
A---------------------------------------------------|
F---------------------------------------------------|
C--0---0---0------0-0-0------------0---0---0--------|
G--0---0---0------0-0-0------------0---0---0--------|
C--0---0---0------0-0-0------------0---0---0--------|
Pm -   -   -      - - -            -   -   -


D-------------------------------------------------------------------------------------|
A-------------------------------------------------------------------------------------|
F-10-10-10-10-10-10-9-9-9-9-9-9-9-9-9-9-9-10-10-10-10-10-9-9-9-9-9-12-12-12-12-12-12--|
C-------------------------------------------------------------------------------------|
G-------------------------------------------------------------------------------------|
C-------------------------------------------------------------------------------------|

Pm all

(4x)

on second time release pm on 12

D-----------------------------------------------------------------------------------------------|
A-----------------------------------------------------------------------------------------------|
F-----------------------------------------------------------------------------------------------|
C-----------------------------------------------------------------------------------------------|
G-----------------------------------------------------------------------------------------------|
C-0-0-0-0-0-0-0-0-0-0-0-0-0-0-0-0-0-0-0-0-0-0-0-0-0-0-0-00000000000000000-----------------------|
Pm all

Chorus

Outro

D--------------------------------------------------------------------------------|
A--------------------------------------------------------------------------------|
F--------------------------------------------------------------------------------|
C--7--5--0--7-------7--5--0--7-------7--5--0--7-----3-3-3--8-8--0-0-1------------|
G--7--5--0--7-------7--5--0--7-------7--5--0--7-----3-3-3--8-8--0-0-1------------|
C--7--5--0--7-------7--5--0--7-------7--5--0--7-----3-3-3--8-8--0-0-1------------|

D--------------------------------------------------------------------------|
A------------[4-4-4]---------[4-4-4]-------------[4-4-4]-------------------|
F------------[4-4-4]---------[4-4-4]-------------[4-4-4]-------------------|
C--7--5--0--7-------7--5--0--7-------7--5--0--7------------3-3-3--8-8--0---|
G--7--5--0--7-------7--5--0--7-------7--5--0--7------------3-3-3--8-8--0---|
C--7--5--0--7-------7--5--0--7-------7--5--0--7------------3-3-3--8-8--0---|
Tap to rate this tab
 
# A B C D E F G H I J K L M N O P Q R S T U V W X Y Z