Song name
# A B C D E F G H I J K L M N O P Q R S T U V W X Y Z

Janus - Stains tab

Band: Janus
Song: Stains
Tabbed by: U B the band (Phil)
Tuning: C G C F A D

Palm mute - pm

Album Version Intro (play 2 times)(Transcribed from piano)
D|--------10----11----------------------11--------------------------|
A|--------------------------------------------13--------------------|
F|--12----------------------------12--------------------------------|
C|------------------------------------------------------------------|
G|------------------------------------------------------------------|
C|------------------------------------------------------------------|

Intro (play 2 times)
D|------------------------------------------------------------------|
A|------------------------------------------------------------------|
F|------------------------------10-10-1010-10--10-1010-10-12-12-12--|
C|--5-5--5-5--5-5-1-1--1-1--1-1-10-10-1010-10--10-1010-10-12-12-12--|
G|--5-5--5-5--5-5-1-1--1-1--1-1-8--8--8-8--8---8--8-8--8--10-10-10--|
C|--5-5--5-5--5-5-1-1--1-1--1-1-8--8--8-8--8---8--8-8--8--10-10-10--|

D|------------------------------------------------------------------|
A|------------------------------------------------------------------|
F|------------------------------------------------------------------|
C|--5-5--5-5--5-5-1-1--1-1--1-1-3--3--3-3--3---3--3-3--3--3--3--3---|
G|--5-5--5-5--5-5-1-1--1-1--1-1-3--3--3-3--3---3--3-3--3--3--3--3---|
C|--5-5--5-5--5-5-1-1--1-1--1-1-3--3--3-3--3---3--3-3--3--3--3--3---|

Pre Verse
D|--------------------------------------|
A|--------------------------------------|
F|--------------------------------------|
C|--1--------1--------1--------1--------|
G|--0--------0--------0--------0--------|
C|--0--------0--------0--------0--------|

Verse 1 (play 2 times)(Transcribed from piano)
D|--------10----11----------------------11--------------------------|
A|--------------------------------------------13--------------------|
F|--12----------------------------12--------------------------------|
C|------------------------------------------------------------------|
G|------------------------------------------------------------------|
C|------------------------------------------------------------------|

Verse 1 (play 2 times, after piano) PALM MUTED
D|------------------------------------------------------------------|
A|------------------------------------------------------------------|
F|------------------------------------------------------------------|
C|------------------------------------------------------------------|
G|------------------------------------------------------------------|
C|--5-5-5-5-5-5-5-5-5-5-5-5-5-5-5-5-8-8-8-8-8-8-8-8-8-8-8-8-8-8-8-8-|

D|------------------------------------------------------------------|
A|------------------------------------------------------------------|
F|------------------------------------------------------------------|
C|------------------------------------------------------------------|
G|------------------------------------------------------------------|
C|--10-10-10-10-10-10-10-10-10-10-10-10-10-10-10-10-----------------|

D|------------------------------------------------------------------|
A|------------------------------------------------------------------|
F|------------------------------------------------------------------|
C|------------------------------------------------------------------|
G|------------------------------------------------------------------|
C|--13-13-13-13-13-13-13-13-12-12-12-12-12-12-12-12-----------------|

Chorus (play 2 times)
D|------------------------------------------------------------------|
A|------------------------------------------------------------------|
F|------------------------------10-10-1010-10--10-1010-10-12-12-12--|
C|--5-5--5-5--5-5-1-1--1-1--1-1-10-10-1010-10--10-1010-10-12-12-12--|
G|--5-5--5-5--5-5-1-1--1-1--1-1-8--8--8-8--8---8--8-8--8--10-10-10--|
C|--5-5--5-5--5-5-1-1--1-1--1-1-8--8--8-8--8---8--8-8--8--10-10-10--|

D|------------------------------------------------------------------|
A|------------------------------------------------------------------|
F|------------------------------------------------------------------|
C|--5-5--5-5--5-5-1-1--1-1--1-1-3--3--3-3--3---3--3-3--3--3--3--3---|
G|--5-5--5-5--5-5-1-1--1-1--1-1-3--3--3-3--3---3--3-3--3--3--3--3---|
C|--5-5--5-5--5-5-1-1--1-1--1-1-3--3--3-3--3---3--3-3--3--3--3--3---|

Post chorus
D|------------------------------------------------------------------|
A|------------------------------------------------------------------|
F|------------------------------------------------------------------|
C|--1-----1------------------1-----1--------------------------------|
G|--0-----0------------------0-----0----0-1-0-3--0-1-0-3--1-3-1-----|
C|--0-----0------------------0-----0----0-1-0-3--0-1-0-3--1-3-1-----|

D|------------------------------------------------------------------|
A|------------------------------------------------------------------|
F|------------------------------------------------------------------|
C|--1-----1------------------1-----1--------------------------------|
G|--0-----0--0-0--0-0--0-0---0-----0----0-1-0-3--0-1-0-3--1-3-1-----|
C|--0-----0--0-0--0-0--0-0---0-----0----0-1-0-3--0-1-0-3--1-3-1-----|
             pmpm pmpm pmpm

Verse 2 (play 2 times)(Transcribed from piano)
D|--------10----11----------------------11--------------------------|
A|--------------------------------------------13--------------------|
F|--12----------------------------12--------------------------------|
C|------------------------------------------------------------------|
G|------------------------------------------------------------------|
C|------------------------------------------------------------------|

Verse 2 (play 2 times, after piano) PALM MUTED
D|------------------------------------------------------------------|
A|------------------------------------------------------------------|
F|------------------------------------------------------------------|
C|------------------------------------------------------------------|
G|------------------------------------------------------------------|
C|--5-5-5-5-5-5-5-5-5-5-5-5-5-5-5-5-8-8-8-8-8-8-8-8-8-8-8-8-8-8-8-8-|

D|------------------------------------------------------------------|
A|------------------------------------------------------------------|
F|------------------------------------------------------------------|
C|------------------------------------------------------------------|
G|------------------------------------------------------------------|
C|--10-10-10-10-10-10-10-10-10-10-10-10-10-10-10-10-----------------|

D|------------------------------------------------------------------|
A|------------------------------------------------------------------|
F|------------------------------------------------------------------|
C|------------------------------------------------------------------|
G|------------------------------------------------------------------|
C|--13-13-13-13-13-13-13-13-12-12-12-12-12-12-12-12-----------------|

Chorus (play 2 times)
D|------------------------------------------------------------------|
A|------------------------------------------------------------------|
F|------------------------------10-10-1010-10--10-1010-10-12-12-12--|
C|--5-5--5-5--5-5-1-1--1-1--1-1-10-10-1010-10--10-1010-10-12-12-12--|
G|--5-5--5-5--5-5-1-1--1-1--1-1-8--8--8-8--8---8--8-8--8--10-10-10--|
C|--5-5--5-5--5-5-1-1--1-1--1-1-8--8--8-8--8---8--8-8--8--10-10-10--|

D|------------------------------------------------------------------|
A|------------------------------------------------------------------|
F|------------------------------------------------------------------|
C|--5-5--5-5--5-5-1-1--1-1--1-1-3--3--3-3--3---3--3-3--3--3--3--3---|
G|--5-5--5-5--5-5-1-1--1-1--1-1-3--3--3-3--3---3--3-3--3--3--3--3---|
C|--5-5--5-5--5-5-1-1--1-1--1-1-3--3--3-3--3---3--3-3--3--3--3--3---|

Pre Bridge
D|--------------------------------------|
A|--------------------------------------|
F|--------------------------------------|
C|--1--------1--------1--------1--------|
G|--0--------0--------0--------0--------|
C|--0--------0--------0--------0--------|

Bridge: 
D|------------------------------------------------------------------|
A|------------------------------------------------------------------|
F|------------------------------------------------------------------|
C|------------------------------------------------------------------|
G|--1-0-1-3-0-1-1-0-1-3-0-1----1-0-3-0-1----1-0----0-0--0-0---------|
C|--1-0-1---0-1---0-1---0-1----1-0---0-1----1-0----0-0--0-0---------|
                                                   pmpm pmpm

D|------------------------------------------------------------------|
A|------------------------------------------------------------------|
F|------------------------------------------------------------------|
C|------------------------------------------------------------------|
G|--1-0-1-3-0-1-1-0-1-3-0-1----1-0-3-0-1----1-0----0-0--0-0---------|
C|--1-0-1---0-1---0-1---0-1----1-0---0-1----1-0----0-0--0-0---------|
                                                   pmpm pmpm

D|------------------------------------------------------------------|
A|------------------------------------------------------------------|
F|---------7--------------------------------------------------------|
C|---------6--------------------------------------------------------|
G|--1-0-0--5----1-0-1-3-0-1----1-0-3-0-1----1-0----0-0--0-0---------|
C|--1-0-0-------1-0-1---0-1----1-0---0-1----1-0----0-0--0-0---------|
    pmpmpm                                         pmpm pmpm

D|------------------------------------------------------------------|
A|------------------------------------------------------------------|
F|------------------------------------------------------------------|
C|------------------------------------------------------------------|
G|--1-0-1-3-0-1-1-0-1-3-0-1----1-0-3-0-1----1-0----0-0--0-0---------|
C|--1-0-1---0-1---0-1---0-1----1-0---0-1----1-0----0-0--0-0---------|
                                                   pmpm pmpm

D|------------------------------------------------------------------|
A|------------------------------------------------------------------|
F|------------------------------------------------------------------|
C|------------------------------------------------------------------|
G|-----------15----------------15-----------------------------------|
C|--13-12-13----12-13-13-12-13--------------------------------------|

Chorus 2/Variation (play 2 times)
D|------------------------------------------------------------------|
A|------------------------------------------------------------------|
F|------------------------------10-10-1010-10--10-1010-10-12-12-12--|
C|--1-1--1-1--1-1-5-5--5-5--5-5-10-10-1010-10--10-1010-10-12-12-12--|
G|--1-1--1-1--1-1-5-5--5-5--5-5-8--8--8-8--8---8--8-8--8--10-10-10--|
C|--1-1--1-1--1-1-5-5--5-5--5-5-8--8--8-8--8---8--8-8--8--10-10-10--|

D|------------------------------------------------------------------|
A|------------------------------------------------------------------|
F|------------------------------------------------------------------|
C|--1-1--1-1--1-1-5-5--5-5--5-5-3--3--3-3--3---3--3-3--3--3--3--3---|
G|--1-1--1-1--1-1-5-5--5-5--5-5-3--3--3-3--3---3--3-3--3--3--3--3---|
C|--1-1--1-1--1-1-5-5--5-5--5-5-3--3--3-3--3---3--3-3--3--3--3--3---|

Outro
D|-----------------------------------------------|
A|-----------------------------------------------|
F|-----------------------------------------------|
C|--1--------1--------1--------1--------1--------|
G|--0--------0--------0--------0--------0--------|
C|--0--------0--------0--------0--------0--------|

Finished
Tap to rate this tab
# A B C D E F G H I J K L M N O P Q R S T U V W X Y Z