Guitaretab - guitar tabs
Song name
# A B C D E F G H I J K L M N O P Q R S T U V W X Y Z

Japandi - Dawn Of The Dad tab

-------------------------------------------------------------------------------
			     JAPANDI - Dawn of the Dad
-------------------------------------------------------------------------------
Tabbed by: MmmmPistachios
Email: contact me through www.ultimate-guitar.com

Tuning: Tune a half step up on all strings.
[ Tab from: http://www.guitaretab.com/j/japandi/179929.html ]
-----------------------------------------------------------------------------------------------
-------------------------------------------------------------3-----------3---------------------
-----------------------------------------------------4---------4-------3--------3--------------
---------------------------------------2---------2-5---5-0-2-----5-0-2-------2--------4--------
-----------5-----------------5-------5---------5-----------------------------------5-----2--0--
-12\-0-2-3---0-2-3-0-2-0-2-3---0-2-3-----0-2-3-------------------------------------------------

The song is pretty much two guitars playing this riff at varying speeds over each-other.
Some sections are palm muted and or syncopated etc. For instance one guitar 
occasionally alternates
the -0-2-3- on the low E# string with the 2 as a triplet.

http://www.japandi.com/