Song name
# A B C D E F G H I J K L M N O P Q R S T U V W X Y Z

Japandroids - I Quit Girls tab

BAND'S WEBSITE : http://japandroids.com/

ATTENTION: Drop D tuning (tune the low E string down to D).

e|--21--21--21--21--21--21--x---21--|
B|--0---0---0---0---0---0---0---0---|
G|--21--21--21--21--21--21--x---21--|
D|--0---0---0---0---0---0---0---0---|
A|--0---0---0---0---0---0---0---0---|
D|--0---0---0---0---0---0---0---0---| x4

e|--0---4h0--|
B|--0---5----|
G|--9---6----|
D|--9---4----|
A|--7---4----|
D|--7---4----|

                        "She wears...

e|--21--21--21--21--21--21--x---21--|
B|--0---0---0---0---0---0---0---0---|
G|--21--21--21--21--21--21--x---21--|
D|--0---0---0---0---0---0---0---0---|
A|--0---0---0---0---0---0---0---0---|
D|--0---0---0---0---0---0---0---0---| x4

... white	six days...

e|--0-----4h0---0------|
B|--10----5-----0------|
G|--9-----6-----9------|
D|--0-----4-----9------|
A|--0-----4----7-------|
D|--9-----4----7-------|

 ...a week." (etc.)

e|--21--21--21--21--21--21--x---21--|
B|--0---0---0---0---0---0---0---0---|
G|--21--21--21--21--21--21--x---21--|
D|--0---0---0---0---0---0---0---0---|
A|--0---0---0---0---0---0---0---0---|
D|--0---0---0---0---0---0---0---0---| x4


valcov.
Tap to rate this tab
# A B C D E F G H I J K L M N O P Q R S T U V W X Y Z