Song name
# A B C D E F G H I J K L M N O P Q R S T U V W X Y Z

Japandroids - Sovereignty tab

Band: Japandroids
Song: Sovereignty
Album: Post-Nothing

Tuning: Drop D (DADGBe)
Effects: Dual Amplifiers - Fuzz Distortion (Recommended: Big Muff Pi) on one amp, Clean 
Chorus on the other amp.

This song starts out with a single power chord riff that remains there for the entire 
While on the album the main chords are overdubbed, you can start off with this riff and 
go directly into the main riff.

Opening Riff:
|-----------------|
|-----------------|
|-----------------|
|-0-0-0-0-0-0-0-0-| x16
|-0-0-0-0-0-0-0-0-|
|-0-0-0-0-0-0-0-0-|

Main Chords:
|---------------------------|
|---------------------------|
|-9------7-----11-----2-----|
|-9-x16--7-x8--11-x8--2-x32-|
|-7------5-----9------0-----|
|-7------5-----9------0-----|

This pattern repeats until the very end of the song, where each chord is simply 
This is done only once through.
Tap to rate this tab
 
# A B C D E F G H I J K L M N O P Q R S T U V W X Y Z