Song name
# A B C D E F G H I J K L M N O P Q R S T U V W X Y Z

Japandroids - Younger Us tab

This is based on ver1 by pye3214 with edits to reflect live performance based on 2 
videos: www.youtube.com/watch?v=sNGusAH3bOI and www.youtube.com/watch?v=bzysUO_nSHs

You can see in the video he is always muting the 6th string when he's playing up high.  
And you can see his index and middle fingers both off the fretboard for the second 
chord. Then you can consider the intro and verse E A C#m A.


Intro
   E                  C#(m)
e|----------------------------------------|
B|----------------------------------------|
G|----------------------------------------|
D|-14-------14--------11------16--14------|
A|-14--------0--------11-------0---0------|
E|--x--------x---------x-------x---x------|

Verse
   E                  C#(m)
e|-------------------------------------------|
B|-------------------------------------------|
G|-1-------------------6---------------------|
D|-2-------14----------6-------16--14--------|
A|-2-------12----------4--------0---0--------|
E|-0--------x----------x--------x---x--------|

Chorus (All power chords)
F#                 C#(m)               B          E        A                  B               C#
    remember that night you were already in bed, said "f*** it" got up to drink with me instead!

Synth/Guitar part played during Bridge. (Other guitar plays main riff)

e|--14--------11-------16--14---|
B|------------------------------|
G|------------------------------|
D|------------------------------|
A|------------------------------|
E|------------------------------|

Bridge Pt. 2 (Play each chord as many times as necessary)

e|-12--11---11-12--|
B|-12--12---12-12--|
G|-----------------|
D|-----------------|
A|-----------------|
E|--0---0---12-12--|

e|----------------------|
B|----------------------|
G|-13--------11--9------|
D|-----13---------------|
A|-11--11----7---7------|
E|----------------------|

Bridge Pt. 3

  F#  C#   B   E      A
e|-------------0------5-|
B|-------------0------5-|
G|-------------1------6-|
D|-4--11---9---2------7-|
A|-4--11---9---2------7-|
E|-2---9---7---0------5-|
Tap to rate this tab
 
# A B C D E F G H I J K L M N O P Q R S T U V W X Y Z