Song name
# A B C D E F G H I J K L M N O P Q R S T U V W X Y Z

Japunga - You Aint Nothing tab

-------------------------------------------------------------------------------
                     You Ain't Nothin - Japunga
-------------------------------------------------------------------------------
Tabbed by: Ethan Kimba
Email: watch.out.for.the.finger@gmail.com

Tuning: Drop C

                INTRO
e|------------------------------------|
B|------------------------------------|
G|------------------------------------|   X3
D|------------------------------------|  
A|------------------------------------|
E|-3-2-2--2-2---3---2--2---3--2--2----|

                THEN
e|------------------------------------|
B|------------------------------------|
G|------------------------------------|
D|------------------------------------|    X1
A|------------------------------------|
E|-3-2-2--2-2---3---2--2---3--5--0----|

e|---------------------------------|
B|---------------------------------|
G|---------------------------------|
D|---------------------------------|   X4
A|---------------------------------|
E|-3-2-2--2-2---3---2--2---3--2--2-|
              "Raaahhhhhhh"

                VERSE
e|-----------------------------------|
B|-----------------------------------|
G|-----------------------------------|
D|-----------------------------------|  
A|-----------------------------------|
E|-3-2-2--2-2---3---2--2---3--2--2---|
   "Yo What The Fuck Is Up With This!........"

             CHORUS        
e|------------|---------------------|
B|------------|---------------------|
G|------------|---------------------|
D|------------|---------------------|   X2
A|------------|---------------------|
E|-3--0--2--0-|-3--0--2--0--0--0--0-|
         v            v
"You ain't nothin"       "You keep commin back!"

e|----------------------------------|
B|----------------------------------|
G|----------------------------------|   X2
D|----------------------------------|  
A|----------------------------------|
E|-3-2-2--2-2---3---2--2---3--2--2--|
   For this part, use no bass on your amp. palm mute if u wish.

e|---------------------------------|
B|---------------------------------|
G|---------------------------------|
D|---------------------------------|    X7
A|---------------------------------|
E|-3-2-2--2-2---3---2--2---3--2--2-|
   Band re-joins

e|---------------------------------|
B|---------------------------------|
G|---------------------------------|
D|---------------------------------|    X7
A|---------------------------------|
E|-3-2-2--2-2---3---2--2---3--2--2-|
 "Whats the use of bringing me, you bring me here to leave me in the dark"
   
                         CHORUS        
e|------------|---------------------|
B|------------|---------------------|
G|------------|---------------------|
D|------------|---------------------|   X1
A|------------|---------------------|
E|-3--0--2--0-|-3--0--2--0--0--0--0-|
         v               v
"You ain't nothin"   "You keep commin back!"
                        THEN

e|------------|
B|------------|
G|------------|
D|------------|   X6
A|------------|
E|-3--0--2--0-|
  "You Ain't Nothin!"

e|---------|-------------|
B|---------|-------------|
G|---------|-------------|   X3
D|---------|-------------|  
A|---------|-------------|
E|-0-0-5-0-|-0-0-5-0-0-0-|
       v         v

e|----------|-----------|
B|----------|-----------|
G|----------|-----------|   X1
D|----------|-----------|  
A|-333333333|-222222222-|
E|-333333333|-222222222-|

e|---------|------------|
B|---------|------------|
G|---------|------------|   X1
D|---------|------------|  
A|---------|------------|
E|-0-0-5-0-|-0-0-5-0-0-0|
       v         v
e|----------|-----------|
B|----------|-----------|
G|----------|-----------|   X1
D|----------|-----------|  
A|-333333333|-222222222-|
E|-333333333|-222222222-|

e|---------|------------|
B|---------|------------|
G|---------|------------|   X2
D|---------|------------|  
A|---------|------------|
E|-0-0-5-0-|-0-0-5-0-0-0|
       v         v
e|--------------------------------|
B|--------------------------------|
G|--------------------------------|
D|--------------------------------|    X7
A|--------------------------------|
E|-3-2-2--2-2---3---2--2---3--2--2|

The outro is the same as above but just with diffrence strumming. listen to the song to figure it out.

enjoy.

v = bend

offical site www.japunga.com
===============================================================================
Tap to rate this tab
 
# A B C D E F G H I J K L M N O P Q R S T U V W X Y Z