Song name
# A B C D E F G H I J K L M N O P Q R S T U V W X Y Z

Japunga - Price tab

Artist: Japunga
Song: The Price
Tuning: Drop C
Tab: Brock.T. - Swamplord
See bottom of tab for tablature and duration legend.

     E  E  S S S E  S E  S S S S    S S E  S S S E  S E  S S S S  
D||------------------------------|-------------------------------|
A||------------------------------|-------------------------------|
F||------------------------------|-------------------------------|
C||------------------------------|-------------------------------|
G||--0--6--6-6-0-6--0-6--6-6-6-6-|--L-6-6--6-6-0-6--0-6--6-6-6-6-|
C||--0--6--6-6-0-6--0-6--6-6-6-6-|--L-6-6--6-6-0-6--0-6--6-6-6-6-|


  S S E  S S S E  S E  S S S S    S S E  S S S E  S E  S S S S  
-------------------------------|-------------------------------|
-------------------------------|-------------------------------|
-------------------------------|-------------------------------|
-------------------------------|-------------------------------|
--L-6-6--6-6-0-6--0-6--6-6-6-6-|--L-6-6--6-6-0-6--0-6--6-6-6-6-|
--L-6-6--6-6-0-6--0-6--6-6-6-6-|--L-6-6--6-6-0-6--0-6--6-6-6-6-|


  S S S S S S S S S S S S S S S S    S S S S S S S S S S S S S S E   
----------------------------------|---------------------------------|
----------------------------------|---------------------------------|
----------------------------------|---------------------------------|
----------------------------------|---------------------------------|
--0-2-2---3-2-2---0-2-2---3-2-2---|--0-2-2---3-2-2---0-2-2---3-2-2--|
--0-2-2---3-2-2---0-2-2---3-2-2---|--0-2-2---3-2-2---0-2-2---3-2-2--|


  E  S E  S S S E  S E  S S S    E  S E  S S S E  S E  S S S  
------------------------------|------------------------------|
------------------------------|------------------------------|
------------------------------|------------------------------|
------------------------------|------------------------------|
--0--0-6--6-6-0-6--0-6--6-6-6-|--6--6-6--6-6-0-6--0-6--6-6-6-|
--0--0-6--6-6-0-6--0-6--6-6-6-|--6--6-6--6-6-0-6--0-6--6-6-6-|


      PM PM PM   PM PM PM   PM PM PM PM PM      PM                              
    S S  S  S  S S  S  S  S S  S  S  E  S  S    S  S S S S S S S S S S S E  E   
|--------------------------------------------|---------------------------------|
|--------------------------------------------|---------------------------------|
|*-------------------------------------------|---------------------------------|
|*-------------------------------------------|---------------------------------|
|---6-0--2--2----3--2--2----0--2--2--3--2----|--2--0-2-2---3-2-2---0-2-2-3--2--|
|---6-0--2--2----3--2--2----0--2--2--3--2----|--2--0-2-2---3-2-2---0-2-2-3--2--|


  E  S S S S E  E  S S S S E     E  S S S S E  E  S S S S S S  
------------------------------|-------------------------------|
------------------------------|-------------------------------|
------------------------------|-------------------------------|
------------------------------|-------------------------------|
--0--2-2-2-3-2--0--2-2-2-3-2--|--0--2-2-2-3-2--0--2-2-2-3-2-2-|
--0--2-2-2-3-2--0--2-2-2-3-2--|--0--2-2-2-3-2--0--2-2-2-3-2-2-|


  E  S E  S S S E  S E  S S S    E  S E  S S S E  S E  S S S  
------------------------------|------------------------------|
------------------------------|------------------------------|
------------------------------|------------------------------|
------------------------------|------------------------------|
--0--0-6--6-6-0-6--0-6--6-6-6-|--6--6-6--6-6-0-6--0-6--6-6-6-|
--0--0-6--6-6-0-6--0-6--6-6-6-|--6--6-6--6-6-0-6--0-6--6-6-6-|


  E  S E  S S S E  S E  S S S    E  S E  S S S E  S E  S S S    
------------------------------|-------------------------------||
------------------------------|-------------------------------||
------------------------------|------------------------------*||
------------------------------|------------------------------*||
--6--6-6--6-6-0-6--0-6--6-6-6-|--6--6-6--6-6-0-6--0-6--6-6-6--||
--6--6-6--6-6-0-6--0-6--6-6-6-|--6--6-6--6-6-0-6--0-6--6-6-6--||


  E  E  E  Q    E  E  E     E  E  E  Q    E   Q       E  E  E  Q    E  E  E   
-------------------------|-------------------------|-------------------------|
-------------------------|-------------------------|-------------------------|
-------------------------|--------------------8----|-------------------------|
-------------------------|--------------------6----|-------------------------|
--0--0-----0----0-----0--|--L--0-----0----0S--6----|--0--0-----0----0-----0--|
--0--0-----0----0-----0--|--L--0-----0----0S--6----|--0--0-----0----0-----0--|


  E  E  E  Q    E   Q       E  E  E  Q    E  E  E     E  E  E  Q    E   Q     
-------------------------|-------------------------|-------------------------|
-------------------------|-------------------------|-------------------------|
--------------------8----|-------------------------|--------------------8----|
--------------------6----|-------------------------|--------------------6----|
--L--0-----0----0S--6----|--0--0-----0----0-----0--|--L--0-----0----0S--6----|
--L--0-----0----0S--6----|--0--0-----0----0-----0--|--L--0-----0----0S--6----|


  E  E  E  Q    E  E  E     E  E  E  Q    E   Q       H         
-------------------------|-------------------------|-----------|
-------------------------|-------------------------|-----------|
-------------------------|--------------------8----|--L--------|
-------------------------|--------------------6----|--L--------|
--0--0-----0----0-----0--|--L--0-----0----0S--6----|--L--------|
--0--0-----0----0-----0--|--L--0-----0----0S--6----|--L--------|


  E  E  S S S E  S E  S S S S    S S E  S S S E  S E  S S S S  
------------------------------|-------------------------------|
------------------------------|-------------------------------|
------------------------------|-------------------------------|
------------------------------|-------------------------------|
--0--6--6-6-0-6--0-6--6-6-6-6-|--L-6-6--6-6-0-6--0-6--6-6-6-6-|
--0--6--6-6-0-6--0-6--6-6-6-6-|--L-6-6--6-6-0-6--0-6--6-6-6-6-|


  S S E  S S S E  S E  S S S S    S S E  S S S E  S E  S S S S  
-------------------------------|-------------------------------|
-------------------------------|-------------------------------|
-------------------------------|-------------------------------|
-------------------------------|-------------------------------|
--L-6-6--6-6-0-6--0-6--6-6-6-6-|--L-6-6--6-6-0-6--0-6--6-6-6-6-|
--L-6-6--6-6-0-6--0-6--6-6-6-6-|--L-6-6--6-6-0-6--0-6--6-6-6-6-|


    PM PM PM   PM PM PM   PM PM PM PM PM      PM                              
  S S  S  S  S S  S  S  S S  S  S  E  S  S    S  S S S S S S S S S S S E  E   
-------------------------------------------|---------------------------------|
-------------------------------------------|---------------------------------|
-------------------------------------------|---------------------------------|
-------------------------------------------|---------------------------------|
--6-0--2--2----3--2--2----0--2--2--3--2----|--2--0-2-2---3-2-2---0-2-2-3--2--|
--6-0--2--2----3--2--2----0--2--2--3--2----|--2--0-2-2---3-2-2---0-2-2-3--2--|


  E  S S S S E  E  S S S S E     E  S S S S E  E  S S S S S S  
------------------------------|-------------------------------|
------------------------------|-------------------------------|
------------------------------|-------------------------------|
------------------------------|-------------------------------|
--0--2-2-2-3-2--0--2-2-2-3-2--|--0--2-2-2-3-2--0--2-2-2-3-2-2-|
--0--2-2-2-3-2--0--2-2-2-3-2--|--0--2-2-2-3-2--0--2-2-2-3-2-2-|


  E  S E  S S S E  S E  S S S    E  S E  S S S E  S E  S S S  
------------------------------|------------------------------|
------------------------------|------------------------------|
------------------------------|------------------------------|
------------------------------|------------------------------|
--0--0-6--6-6-0-6--0-6--6-6-6-|--6--6-6--6-6-0-6--0-6--6-6-6-|
--0--0-6--6-6-0-6--0-6--6-6-6-|--6--6-6--6-6-0-6--0-6--6-6-6-|


  E  S E  S S S E  S E  S S S    E  S E  S S S E  S E  S S S  
------------------------------|------------------------------|
------------------------------|------------------------------|
------------------------------|------------------------------|
------------------------------|------------------------------|
--6--6-6--6-6-0-6--0-6--6-6-6-|--6--6-6--6-6-0-6--0-6--6-6-6-|
--6--6-6--6-6-0-6--0-6--6-6-6-|--6--6-6--6-6-0-6--0-6--6-6-6-|


  S S S S S S S S S S S S S S S S    S S S S S S S S S S S S S S E   
----------------------------------|---------------------------------|
----------------------------------|---------------------------------|
----------------------------------|---------------------------------|
----------------------------------|---------------------------------|
--0-2-2---3-2-2---0-2-2---3-2-2---|--0-2-2---3-2-2---0-2-2---3-2-2--|
--0-2-2---3-2-2---0-2-2---3-2-2---|--0-2-2---3-2-2---0-2-2---3-2-2--|


  S S S S S S S S S S S S S S S S    S S S S S S S S S S S S S S E   
----------------------------------|---------------------------------|
----------------------------------|---------------------------------|
----------------------------------|---------------------------------|
----------------------------------|---------------------------------|
--0-2-2-2-3-2-2-2-0-2-2-2-3-2-2-2-|--0-2-2-2-3-2-2-2-0-2-2-2-3-2-2--|
--0-2-2-2-3-2-2-2-0-2-2-2-3-2-2-2-|--0-2-2-2-3-2-2-2-0-2-2-2-3-2-2--|


  E  S E  S S S E  S E  S S S    E  S E  S S S E  S E  S S S  
------------------------------|------------------------------|
------------------------------|------------------------------|
------------------------------|------------------------------|
------------------------------|------------------------------|
--0--0-6--6-6-0-6--0-6--6-6-6-|--6--6-6--6-6-0-6--0-6--6-6-6-|
--0--0-6--6-6-0-6--0-6--6-6-6-|--6--6-6--6-6-0-6--0-6--6-6-6-|


  E  S E  S S S E  S E  S S S    E  S E  S S S E  S E  S S S  
------------------------------|------------------------------|
------------------------------|------------------------------|
------------------------------|------------------------------|
------------------------------|------------------------------|
--6--6-6--6-6-0-6--0-6--6-6-6-|--6--6-6--6-6-0-6--0-6--6-6-6-|
--6--6-6--6-6-0-6--0-6--6-6-6-|--6--6-6--6-6-0-6--0-6--6-6-6-|


    E  E  E  Q    E  E  E     E  E  E  Q    E   Q       E  E  E  Q    E  E  E   
|--------------------------|-------------------------|-------------------------|
|--------------------------|-------------------------|-------------------------|
|*-------------------------|--------------------8----|-------------------------|
|*-------------------------|--------------------6----|-------------------------|
|---0--0-----0----0-----0--|--L--0-----0----0S--6----|--0--0-----0----0-----0--|
|---0--0-----0----0-----0--|--L--0-----0----0S--6----|--0--0-----0----0-----0--|


  E  E  E  Q    E   Q          Q      Q     Q      Q      
--------------------------||-----------------------------|
--------------------------||---3S----15S----3S----15S----|
--------------------8----*||*--2S----14S----2S----14S----|
--------------------6----*||*----------------------------|
--L--0-----0----0S--6-----||-----------------------------|
--L--0-----0----0S--6-----||-----------------------------|


  Q      Q     Q      Q     3x  Q      Q     Q      Q      
----------------------------||----------------------------|
--3S----15S----3S----18-----||--3S----15S----3S----15S----|
--2S----14S----2S----17----*||--2S----14S----2S----14S----|
---------------------------*||----------------------------|
----------------------------||----------------------------|
----------------------------||----------------------------|


  Q      Q     Q      Q       W                   W                  
---------------------------|-------------------|-------------------||
--3S----15S----3S----18----|--L----------------|--L----------------||
--2S----14S----2S----17----|--L----------------|--L----------------||
---------------------------|-------------------|-------------------||
---------------------------|-------------------|-------------------||
---------------------------|-------------------|-------------------||


Duration Legend
---------------
W - whole
H - half
Q - quarter
E - 8th
S - 16th

Tablature Legend
----------------
L - Tied note
S - Slide
PM - Palm mute
Tap to rate this tab
 
# A B C D E F G H I J K L M N O P Q R S T U V W X Y Z