Song name
# A B C D E F G H I J K L M N O P Q R S T U V W X Y Z

Jarabe De Palo - Grita tab

-------------------------------------------------------------------------------
			     Grita (Guitar Solo) - Jarabe de Palo
-------------------------------------------------------------------------------
Tabbed by: Govind Sidhu		
Email: Nugiboy@hotmail.com	

Tuning:Standard
                                 G Chord
e|---------------------------------------------------------------------------|
B|------------------/12~-----------------------------------------------------|
G|---------------12----------------------------------------------------------|
D|-----------/12-------------------------------------------------------------|
A|---------------------------------------------------------------------------|
E|---------------------------------------------------------------------------|
                                B7 Chord
e|---------------------------------------------------------------------------|
B|------------------/16~-----------------------------------------------------|
G|---------------16------------------------------------------------------16--|
D|-----------/16-------------------------------------------------------------|
A|---------------------------------------------------------------------------|
E|---------------------------------------------------------------------------|
                                Em Chord
e|---------------------------------------------------------------------------|
B|-------19b20r19-17---------------------------------------------------------|
G|-------------------16-----------14-----------------------------------------|
D|----------------------17---------------------------------------------------|
A|-------------------------16h17---------------------------------------------|
E|---------------------------------------------------------------------------|
                                C Chord
e|---------------------------------------------------------------------------|
B|---------------------------------------------------------------------------|
G|---------14~-/16~-/17------------------------------------------------------|
D|---------------------------------------------------------------------------|
A|---------------------------------------------------------------------------|
E|---------------------------------------------------------------------------|
                                G Chord
e|---------------------------------------------------------------------------|
B|---------------------------------------------------------------------------|
G|-----/16~------------------------------------------------------------------|
D|-----------7b9r7-5---------------------------------------------------------|
A|---------------------------------------------------------------------------|
E|---------------------------------------------------------------------------|
                                B7 Chord
e|---------------------------------------------------------------------------|
B|---------------------------------------------------------------------------|
G|---------9-----------------------------------------------------------------|
D|-------/9---9\7/9--------------7p5-----------------------------------------|
A|-----------------------------------7-7~------------------------------------|
E|---------------------------------------------------------------------------|
                                Em Chord
e|---------12-----------12---------------------------------------------------|
B|------12----12---15b17--r15------------------------------------------------|
G|---14-----------------------14b16------------------------------------------|
D|---------------------------------------------------------------------------|
A|---------------------------------------------------------------------------|
E|---------------------------------------------------------------------------|
                                D Chord
e|---------------------------------------------------------------------------|
B|---------------------------------------------------------------------------|
G|----r14~-------------------------------------------------------------------|
D|---------------------------------------------------------------------------|
A|---------------------------------------------------------------------------|
E|---------------------------------------------------------------------------|

| b  bend up
| r  release bend
| /  slide up
| \  slide down
| h  hammer-on
| p  pull-off
| ~  vibrato
| +  harmonic
| x  Mute note
===============================================================================
Tap to rate this tab
 
# A B C D E F G H I J K L M N O P Q R S T U V W X Y Z