Song name
# A B C D E F G H I J K L M N O P Q R S T U V W X Y Z

Jarabe De Palo - El Lado Oscuro tab

Instrucciones:

5h7  hammer on
7p5  pull off
5/7  slide del 5 al 7
75  slide del 7 al 5
5/   slide del 5 hasta ninguna parte hacia arriba
5   slide del 5 hasta ninguna parte hacia abajo
/5   slide de donde quieras al 5
5b7  full bend
5b6  half bend
5~   hold
5r3  release note
(9)  nota fantasma(solo hay una, tocala rapido sino desafinas)

Nota 1: Encontraras cosas como esta: Cm/Dm, esto no es
un acorde extraño, solo te indica que tienes que hacer
un slide del Cm al Dm, Ok.

Nota 2: Tambien encontraras esto: Fm*, ese asterisco te
indica esto:

|-1-1---|
|-1--1--|
|-1---1-|
|-3-----|
|-3-----|
|-1-----|

O sea que primero rasgueas y luego tocas esas tres notas, Ok.

Acordes:

   Cm  Fm  Gm  Dm  Am  Em  Bm  Cm#
e|--3---1---3---5---5---7---2---4--|
B|--4---1---3---6---5---8---3---5--|
G|--5---1---3---7---5---9---4---6--|
D|--5---3---5---7---7---9---4---6--|
A|--3---3---5---5---7---7---2---4--|
E|--3---1---3---5---5---7---2---4--|

Bueno ahora si al grano:

Intro:
|----------------|----------------|----------------|
|----------------|----------------|----------------|
|----------------|----------------|----------------|
|----------------|---5-3----------|----------------|
|-------5b6r5-3~-|-3-----5b6r5-3~-|-------5b6r5-3~-|
|-3-6-3----------|----------------|-3-6-3----------|

-----------------|----------------|----------------|
-----------------|----------------|----------------|
-----3-----------|----------------|----------------|
-4h5---3b5-------|----------------|----------------|
----------5b6-3~-|----------------|-------5b6r5-3~-|
-----------------|-4/3--2-0--7-8-|-3-6-3-----------|
Verso 1:

Cm                Bm/Cm      Cm/Dm      Cm     Bm/Cm   Cm/Dm Cm/Dm
Puede que hayas nacido en la cara buena del mundo
Cm              Bm/Cm  Cm/Dm   Cm          Bm/Cm    Cm
Yo nací en la cara mala, llevo la marca del lado oscuro
        Fm*                       Gm*
Y no me sonrojo si te digo que te quiero
Cm                 Bm/Cm    Cm
Y que me dejes o te deje, eso ya no me da miedo


        Fm*                     Gm*  riff 1      Cm
Habías sido sin dudarlo la más bella de entre todas
                     Bm/Cm              riff 2
las estrellas que yo vi en el firmamento.

verso 2: Se toca de la misma manera y se agregan los riffs:

                                     riff 3
Como ganarse el cielo cuando uno ama con toda el alma
Y es que el cariño que te tengo no se paga con dinero
Como decirte que sin ti muero
Y no me sonrojo si te digo que te quiero
Y que me dejes o te deje, eso ya no me da miedo
Habías sido sin dudarlo la más bella de entre todas
las estrellas que yo vi en el firmamento.  riff 2

SOLO 1:
|--------------------------------------|-------------------------------------|
|--------------------------------------|-------------------------------------|
|------8-------------------------------|-------------------------------------|
|-8/10---10-8---------8----------------|-/10--/10-8--10-8------8-—8h10-8---8-|
|-------------10—8/10---10b11—---------|------------------8h10-----------10--|
|-----------------------------10b11--8-|-------------------------------------|

----------------------------------------------------------------------------|
-----------------------88-----------------------8-10b11---------------------|
-----88------1010--------------88------1010--------------8/10-8-8/10--------|
8h10----8h10------8h10----8h10----8h10------8h10---------8/10-8—8/10--------|
---------------------------------------------------------------------10p9p8-|
----------------------------------------------------------------------------|

-----------------------------------------------------------------------------|
-----------------------------------------------------------------------------|
---------------------------------------------------------8-8----8-10b12-8----|
-----------------------------------8-8-----8-10-10--8-10-----10-----------10-|
---------------88----8-10-10--8-10------10-----------------------------------|
8-8-1010--8-10----10---------------------------------------------------------|

----------------------------------------------|--11-11-11p8-8-8-8-------------|
----------------------------------------------|-------------------11-11-11p8--|
-8/108—--------------------------------------|--------------------------------|
-8/108—-8/10--8—-----------------------------|--------------------------------|
------------------8/10-8--8—10-8h10p8---------|-------------------------------|
--------------------------------------10-(9)-8|-------------------------------|

----------------------------------------------------------------------------|
-8-8-8----------------------------------------------------------------------|
-------10-10-10p8-8-8-----8-----8-------------------------------------------|
----------------------10----10-----10---8/10--8-----------------------------|
-------------------------------------------------108--6---------------------|
------------------------------------------------------------8—-6--8---------|


Verso 3: aquí se cambia de tono y se comienza de esta manera:

|----------------|
|----------------|
|----------------|
|----------------|
|-------7b8r7-5~-|
|-5-8-5----------|

Dm              Cm#/Dm      Dm/Em   Dm            Cm#/Dm  Dm/Em Dm/Em
Puede que hayas nacido en la cara buena del mundo



Dm              Cm#/Dm      Dm/Em   Dm            Cm#/Dm
Yo nací en la cara mala, llevo la marca del lado oscuro
Gm*                      Am*   riff 4
Y no me sonrojo si te digo que te quiero
Dm              Cm#/Dm      Dm/Em   Dm
Y que me dejes o te deje, eso ya no me da miedo
        Gm*                     Am*           Dm
Habías sido sin dudarlo la más bella de entre todas
                    Cm#/Dm
las estrellas que yo vi en el firmamento.
         Gm*                     Am*             Dm  Cm#/Dm
no me sonrojo si te digo que te quiero, si te digo que te quiero.

Gm*   Am*   Dm riff 5

Nota: Durante todo el solo, el acompañamiento es únicamente Dm

SOLO 2:
|---------------------------------------------------------------------------|
|--------------------------------10-----------------------------------------|
|---10-12-12h13-12~-----10-12-13----13-------10-----------------------------|
|-12------------------12------------------12-----12-12-10----10-------------|
|---------------------------------------------------------12-----10/8-------|
|---------------------------------------------------------------------10-10-|

--------------------------|--------------------------------------------------|
--------------------------|----------------------------10-------------13-10--|
--------------------------|----------------------10h12----12-10--------------|
--------------------------|----------------10-12----------------12-----------|
-----8-10p8-----8---------|-------10-10/12-----------------------------------|
-/10--------10----10-10/--|-10-12--------------------------------------------|

-------------------------------------------------|-----------13-12-10h12p10-|
-------------------------------------------------|--------------------------|
-12-10----12-10----------------------------------|------10------------------|
-------12-------12---10----10-------------10-12--|--/12---------------------|
------------------------12----12-12-10-12--------|--------------------------|
-------------------------------------------------|--------------------------|

--9b11-10-8------------------------------------------------------------------|
------------10-8-8/6-----8-----10p9p8-----6---------6-8—6h8p6-----6----------|
---------------------7-----7----------7-----7-7----------------7-----7-------|
-----------------------------------------------------------------------------|
-----------------------------------------------------------------------------|
-----------------------------------------------------------------------------|

* Segunda guitarra, (pequeño riff)
|-----------------------------|
|-8—-8—-8p6--------6-6h8p6----|
|--------------7------------7-|
|-----------------------------|
|-----------------------------|
|-----------------------------|

-10-10-10p8-------8-8h10p8------10/--|--16b18--16b18--|--13-10-10-10--12b13-|
--------------10----------------10/--|----------------|---------------------|
-------------------------------------|----------------|---------------------|
-------------------------------------|----------------|---------------------|
-------------------------------------|----------------|---------------------|
-------------------------------------|----------------|---------------------|







                                                  *otra vez segunda guitarra
                                                 |--------------------------|
                                                 |--------------------------|
                                                 |10-12-12~------10h12p10---|
                                                 |----------------------x12/|
                                                 |--------------------------|
                                                 |--------------------------|

---13-1212-10----10-------10---------------------|--------------------------|
10------------13----13b15----13-10---------------|--------------------------|
-----------------------------------12-10-12-10---|10-12-12h13-12-10h12p10---|
-----------------------------------------------12|-----------------------12/|
-------------------------------------------------|--------------------------|
-------------------------------------------------|--------------------------|


|-----------------------------------------------------------|----------------|
|-----------------------------------------------------------|----------------|
|-----------------------------------------------------------|----------------|
|-----------------------------------------------------------|-------------10-|
|----8----8—10/12—-12/10—10p8-10p8--------------------------|-----8-10/12----|
|-10---10--------------------------10-10---10--8/5—8~-10/18-|-/10------------|


--------------|----------------------------------------------------|----------|
--------------|----------------------------------------------------|----------|
-------8-10-8-|12-11-10p9------------------------------------------|----------|
-10-12--------|-----------12--12-11p10-----------------------------|10--12-12-|
--------------|------------------------12—-12/10p8--12/10--8—10/12~|--12------|
--------------|----------------------------------------------------|----------|


                                        *fade out
-----------------------------------|------|-8b11~-10p8-10p8-----------------|
-----------------------------------|------|-----------------10-8-10p8---8-10|
-----------------------------------|-2/12-|---------------------------8-----|
--12-12/10-------------------------|-2/12-|---------------------------------|
-----------12-12-—10/8----8--------|------|---------------------------------|
-----------------------10----10-10-|--no--|---------------------------------|

                                    *tengo idea si esta partecita está bien
----13-12-10--12p10----10---10p8---------------------|-------15~|----13-13--|
--------------------13-----------11--11p10p8---------|----15----|-15--------|
-10------------------------------------------10-10/1-|-3/-------|-----------|
-----------------------------------------------------|----------|-----------|
-----------------------------------------------------|----------|-----------|
-----------------------------------------------------|----------|-----------|


----15p13------17-15-15p13----13-------|-------12b14~-12b14~|-------10--13--|
-15-------15---------------15----15-15-|-10/13--------------|-13b16---------|
---------------------------------------|--------------------|---------------|
---------------------------------------|--------------------|---------------|
---------------------------------------|--------------------|---------------|
---------------------------------------|--------------------|---------------|


-------10-13---------10-13---------10--14b16~------------------------------|
-13b16--------13b16---------13b16------------------------------------------|
---------------------------------------------------------------------------|
---------------------------------------------------------------------------|
---------------------------------------------------------------------------|
---------------------------------------------------------------------------|





Riffs:

|-----------------------|
|-----------------------|
|-----------------------| riff 1
|-----------------------|
|------8-10-8h10p8------|
|-8-10-------------10-8-|

|----------------|
|----------------|
|----------------| riff 2
|----------------|
|-------5b6r5-3~-|
|-3-6-3----------|



|-------10-9-8-|
|--------------|
|-----8--------| riff 3
|-/10----------|
|--------------|
|--------------|

|----------------------------|
|----------------------------|
|----------------------------| riff 4
|----------------------------|
|-------10-12-10h12p10-------|
|-10-12----------------12-10-|

|-----------------|
|-----------------|
|-----------------| riff 5
|-----------------|
|-5--3---------5~-|
|------5-3--1-----|
Tap to rate this tab
 
# A B C D E F G H I J K L M N O P Q R S T U V W X Y Z