Song name
# A B C D E F G H I J K L M N O P Q R S T U V W X Y Z

Jarabe De Palo - El Lado Oscuro tab

Acordes: Cm(x35543)
         Bm(x24432)
         Dm(x57765)
         Fm(133111)
         Gm(355333)
         Am(577555)
        Cm#(x46654)
         Em(x79987)

Intro: (0:00-0:20)
|----------------|----------------|----------------|
|----------------|----------------|----------------|
|----------------|----------------|----------------|
|----------------|---5-3----------|----------------|
|-------5b6---3~-|-3-----5b6---3~-|-------5b6---3~-|
|-3-6-3----------|----------------|-3-6-3----------|

-----------------|----------------|----------------|
-----------------|----------------|----------------|
-----3-----------|----------------|----------------|
-4h5---3b5-------|----------------|----------------|
----------5b6-3~-|----------------|-------5b6---3~-|
-----------------|--3--2-0--7-8---|-3-6-3----------|


Verso1: (0:20-0:39)
Principalmente se toca Cm con algunos arreglos que consisten en deslizamientos de Bm a 
Bm/Cm; y otros deslizamientos de Cm a Dm, Cm/Dm.

Cm                Bm/Cm      Cm/Dm      Cm     Bm/Cm   Cm/Dm Cm/Dm
Puede que hayas nacido en la cara buena del mundo
Cm              Bm/Cm  Cm/Dm   Cm          Bm/Cm    Cm
Yo nac en la cara mala, llevo la marca del lado oscuro


Coro: (0:39-1:00)
        Fm                        Gm
Y no me sonrojo si te digo que te quiero
Cm                 Bm/Cm    Cm
Y que me dejes o te deje, eso ya no me da miedo
        Fm                      Gm               Cm
Habas sido sin dudarlo la ms bella de entre todas
                     Bm/Cm
las estrellas que yo vi en el firmamento.


Verso2: (1:00-1:18)
Como ganarse el cielo cuando uno ama con toda el alma
Y es que el cario que te tengo no se paga con dinero
Como decirte que sin ti muero


Coro: (1:18-1:39)
Y no me sonrojo si te digo que te quiero
Y que me dejes o te deje, eso ya no me da miedo
Habas sido sin dudarlo la ms bella de entre todas
las estrellas que yo vi en el firmamento.


Solo1.(1:39-2:18)
|-------------------------------------|-------------------------------------|
|-------------------------------------|-------------------------------------|
|-----8-------------------------------|-------------------------------------|
|8/10---10-8---------8----------------|-/10--/10-8--10-8------8-8h10-8---8-|
|------------108/10---10b11---------|------------------8h10-----------10--|
|----------------------------10b11--8-|-------------------------------------|

---------------------------------------------------------------------------|
-----------------------88-----------------------8-10b11--------------------|
-----88------1010--------------88------1010--------------8/10-8-8/10-------|
8h10----8h10------8h10----8h10----8h10------8h10---------8/10-88/10-------|
---------------------------------------------------------------------10p9p8|
---------------------------------------------------------------------------|

-----------------------------------------------------------------------------|
-----------------------------------------------------------------------------|
---------------------------------------------------------8-8----8-10b12-8----|
-----------------------------------8-8-----8-10-10--8-10-----10-----------10-|
---------------88----8-10-10--8-10------10-----------------------------------|
8-8-1010--8-10----10---------------------------------------------------------|

---------------------------------------------|--11-11-11p8-8-8-8------------|
---------------------------------------------|-------------------11-11-11p8-|
8/10\8--------------------------------------|------------------------------|
8/10\8-8/10--8-----------------------------|------------------------------|
-----------------8/10-8--810-8h10p8---------|------------------------------|
-------------------------------------10-(9)-8|------------------------------|

---------------------------------------------------------------------------|
8-8-8----------------------------------------------------------------------|
------10-10-10p8-8-8-----8-----8-------------------------------------------|
---------------------10----10-----10---8/10--8-----------------------------|
------------------------------------------------10\8--6--------------------|
-----------------------------------------------------------8-6--8\--------|

Ahora se toca el ltimo verso y coro de la msima manera con la excepcin que se suben los tonos

Verso3: (2:18-2:36)
|----------------|
|----------------|
|----------------|
|----------------|
|-------7b8r7-5~-|
|-5-8-5----------|

Dm              Cm#/Dm      Dm/Em   Dm            Cm#/Dm  Dm/Em Dm/Em
Puede que hayas nacido en la cara buena del mundo
Dm              Cm#/Dm      Dm/Em   Dm            Cm#/Dm
Yo nac en la cara mala, llevo la marca del lado oscuro


Coro:(2:36-:)
Gm(3
          Gm                       Am
Y no me sonrojo si te digo que te quiero
Dm              Cm#/Dm      Dm/Em   Dm
Y que me dejes o te deje, eso ya no me da miedo
        Gm                      Am            Dm
Habas sido sin dudarlo la ms bella de entre todas
                    Cm#/Dm
las estrellas que yo vi en el firmamento.
         Gm                      Am              Dm  Cm#/Dm
no me sonrojo si te digo que te quiero, si te digo que te quiero.

Gm*   Am*   Dm
Tap to rate this tab
# A B C D E F G H I J K L M N O P Q R S T U V W X Y Z