Guitaretab - guitar tabs
Song name
# A B C D E F G H I J K L M N O P Q R S T U V W X Y Z

Jarek Nohavica - Kometa tab

       Ami
e----------------------------------------------------------|
h----------------1--------0--------1-----------------------|
g-------------2-----2--------2--------2--------------------|
d----------2-----------2--------2--------2-----------------|
A-------0--------------------------------------------------|
E----------------------------------------------------------|


1. SLOKA:

        2xAmi
e----------------------------------------------------------|
h----------------1--------0--------1-----------------------|
g-------------2-----2--------2--------2--------------------|
d----------2-----------2--------2--------2-----------------|
A-------0--------------------------------------------------|
E----------------------------------------------------------|
     I. Spatřil jsem kometu oblohou letěla,
	chtěl jsem ji zazpívat, ona mi zmizela,


        Dmi               G7
e----------------1-----------------------------------------|
h-------------3-----3--------------0-----------------------|
g----------2-----------2--------0-----0--------------------|
d-------0--------------------0-----------0-----------------|
A----------------------------------------------------------|
E-------------------------3--------------------------------|
        zmizela jako laň  u lesa v remízku,


        Cdur                 E
e----------------0-----------------------------------------|
h-------------1-----1------------------0-------------------|
g----------0-----------0------------1-----1----------------|
d--------------------------------2-----------2-------------|
A-------3--------------------------------------------------|
E----------------------------0-----------------------------|
        v očích mi zbylo jen pár žlutých penízků.

2. SLOKA (tab je stejný až na závěr, kde je E7):

        2xAmi
e----------------------------------------------------------|
h----------------1--------0--------1-----------------------|
g-------------2-----2--------2--------2--------------------|
d----------2-----------2--------2--------2-----------------|
A-------0--------------------------------------------------|
E----------------------------------------------------------|
    II. Penízky ukryl jsem do hlíny pod dubem,
        až příště přiletí, my už tu nebudem,


        Dmi               G7
e----------------1-----------------------------------------|
h-------------3-----3--------------0-----------------------|
g----------2-----------2--------0-----0--------------------|
d-------0--------------------0-----------0-----------------|
A----------------------------------------------------------|
E-------------------------3--------------------------------|
        my už tu nebudem, ach pýcho marnivá,


        Cdur                 E7
e----------------0-----------------------------------------|
h-------------1-----1------------------3-------------------|
g----------0-----------0------------1-----1----------------|
d--------------------------------2-----------2-------------|
A-------3--------------------------------------------------|
E----------------------------0-----------------------------|
        spatřil jsem kometu, chtěl jsem jí zazpívat.


REFRÉN:

        Ami
e----------------------------------------------------------|
h----------------1------------------1----------------------|
g-------------2-----2------------2-----2-------------------|
d----------2-----------2------2-----------2----------------|
A-------0------------------0-------------------------------|
E----------------------------------------------------------|
        O vodě,            o trávě,


        Dmi
e----------------1--------0--------1-----------------------|
h-------------3-----3--------3--------3--------------------|
g----------2-----------2--------2--------2-----------------|
d-------0--------------------------------------------------|
A----------------------------------------------------------|
E----------------------------------------------------------|
        o lese,


        G7
e----------------------------------------------------------|
h----------------0-----------------0-----------------------|
g-------------0-----0-----------0-----0--------------------|
d----------0-----------0-----0-----------0-----------------|
A----------------------------------------------------------|
E-------3-----------------3--------------------------------|
        o smrti,          se kterou smířit


        Cdur
e----------------0-----------------------------------------|
h-------------------1-----3--------1-----------------------|
g-------------0--------0-----0--------0--------------------|
d----------2--------------------2--------2-----------------|
A-------3--------------------------------------------------|
E----------------------------------------------------------|
        nejde se,

[ Tab from: http://www.guitaretab.com/j/jarek-nohavica/87759.html ]
        Ami
e----------------------------------------------------------|
h----------------1------------------1----------------------|
g-------------2-----2------------2-----2-------------------|
d----------2-----------2------2-----------2----------------|
A-------0------------------0-------------------------------|
E----------------------------------------------------------|
        o lásce,           o zradě,


        Dmi
e----------------1-------0--------1------------------------|
h-------------3----3--------3--------3---------------------|
g----------2----------2--------2--------2------------------|
d-------0--------------------------------------------------|
A----------------------------------------------------------|
E----------------------------------------------------------|
        o světě


        Edur              E7
e----------------------------------0-----------------------|
h----------------0--------3-----------3--------------------|
g-------------1-----1--------1-----------1-----------------|
d----------2-----------2--------2--------------------------|
A----------------------------------------------------------|
E-------0--------------------------------------------------|
        a o všech lidech, co kdy žili na téhle


        Ami                Edur
e-----------------------------0----------------------------|
h----------------1---------------0-----0-------------------|
g-------------2----(2)--------------1----------------------|
d----------2-----------2-----------------------------------|
A-------0--------------------------------------------------|
E--------------------------0-------------------------------|
        planetě

Následuje 3. a 4. sloka - hraje se úplně stejně jako 1. a 2.

SÓLO - začíná 1:22 - :

        Ami
e----------------------------------------------------------|
h----------------1--------0--------1-----------------------|
g-------------2-----2--------2--------2--------------------|
d----------2-----------2--------2--------2-----------------|
A-------0--------------------------------------------------|
E----------------------------------------------------------|

        Dmi
e----------------1--------0--------1-----------------------|
h-------------3-----3--------3--------3--------------------|
g----------2-----------2--------2--------2-----------------|
d-------0--------------------------------------------------|
A----------------------------------------------------------|
E----------------------------------------------------------|

        G7
e----------------------------------------------------------|
h----------------0--------1---------3----------------------|
g-------------0-----0--------0---------0-------------------|
d----------0-----------0--------0---------0----------------|
A----------------------------------------------------------|
E-------3--------------------------------------------------|


        Cdur
e----------------0-----------------------------------------|
h-------------------1-----3--------1-----------------------|
g-------------0--------0-----0--------0--------------------|
d----------2--------------------2--------2-----------------|
A-------3--------------------------------------------------|
E----------------------------------------------------------|

        Ami
e----------------------------------------------------------|
h----------------1--------0--------1-----------------------|
g-------------2-----2--------2--------2--------------------|
d----------2-----------2--------2--------2-----------------|
A-------0--------------------------------------------------|
E----------------------------------------------------------|

        Dmi
e----------------1--------0--------1-----------------------|
h-------------3-----3--------3--------3--------------------|
g----------2-----------2--------2--------2-----------------|
d-------0--------------------------------------------------|
A----------------------------------------------------------|
E----------------------------------------------------------|


        Edur              E7
e----------------------------------0-----------------------|
h----------------0--------3-----------3--------------------|
g-------------1-----1--------1-----------1-----------------|
d----------2-----------2--------2--------------------------|
A----------------------------------------------------------|
E-------0--------------------------------------------------|

Potom hrajte 5. a 6. sloku - hraje se stejně jako 1. a 2.

Následuje opět REFRÉN (tab je nahoře) s tímto závěrem:

        E7
e--------------------------0-------------------------------|
h----------------3-----------------------------------------|
g-------------1-----1--------------------------------------|
d----------2-----------2-----------------------------------|
A----------------------------------------------------------|
E-------0--------------------------------------------------|

        bude to písnička o nás a kometě ...