Song name
# A B C D E F G H I J K L M N O P Q R S T U V W X Y Z

Jaret Reddick - Endless Possibility tab

First Tab I post here, I hope this is correct, if not please tell me because
I want to play it with better sound ^^ There are some things That maybe I missed -.-
Tab made by me, by ear jiji ^^

INTRO:

e|---------------------------------|
B|-4-4-4-5-5-5-4-4-4-5-5-5-4-4-5-5-|
G|-4-4-4-4-4-4-4-4-4-4-4-4-4-4-4-4-| x2
D|---------------------------------|
A|---------------------------------|
E|---------------------------------|

e|---------------------------------|
B|-9-9-9-7-7-7-9-9-9-7-7-7-9-9-7-7-|
G|-9-9-9-9-9-9-9-9-9-9-9-9-9-9-9-9-| x2
D|---------------------------------|
A|---------------------------------|
E|---------------------------------|


VERSE A:
e|-------------------------------------------------------|
B|-4-4-4-5-5---5-4-4-4-5-5---5-4-4-4-5-5---5-4-4-4-5-5---|
G|-4-4-4-4-4---4-4-4-4-4-4---4-4-4-4-4-4---4-4-4-4-4-4---|
D|-------------------------------------------------------|
A|-------------------------------------------------------|
E|-------------------------------------------------------|

e|-------------------------------------------------------|
B|-5-7-7-7-9-9---9-7-7-7-9-9---9-7-7-7-9-9---9-7-7-7-9-9-|
G|-4-9-9-9-9-9---9-9-9-9-9-9---9-9-9-9-9-9---9-9-9-9-9-9-|
D|-------------------------------------------------------|
A|-------------------------------------------------------|
E|-------------------------------------------------------|

Also, lead guitar makes in this:

e|-------------------------------------------------------------|
B|-------------------------------------------------------------|
G|-4--4-4-4-4-4-4-6--6-6-6-6-6-6-8--8-8-8-8-8-8-9--9-9-9-9-9-9-|
D|-------------------------------------------------------------|
A|-------------------------------------------------------------|
E|-------------------------------------------------------------|


PRE-CHORUS (the rythim is just the same as the first part of the verse but this time x4
and then the second part of the verse struming at the time of the song) This is the 
sound:

e|-12--14-12--12--14-12--12--14-12-16--14-12-|
B|---12---------12---------12--------12------|
G|-------------------------------------------|
D|-------------------------------------------| x3
A|-------------------------------------------|
E|-------------------------------------------|

e|-16--14--16--12--16--14--16--17-16-|
B|---12--12--12--12--12--12--12------|
G|-----------------------------------|
D|-----------------------------------|
A|-----------------------------------|
E|-----------------------------------|

CHORUS:

e|-----------------------------------------------------------|
B|-4-4-4-5-5--5-4-4-4-5-5--5-7-7-7-7-7-7-7-7-7-7-7-7-7-7-7-7-|
G|-4-4-4-4-4--4-4-4-4-4-4--4-9-9-9-9-9-9-9-9-9-9-9-9-9-9-9-9-|
D|-----------------------------------------------------------|
A|-----------------------------------------------------------|
E|-----------------------------------------------------------|

e|------------------------------------------------------------|
B|--------------11-11--9-9-------------------11-11--9-9-------|
G|-9--9-9-9-9-9-------------9-9--9-9-9-9-9-9--------------9-9-|
D|------------------------------------------------------------|
A|------------------------------------------------------------|
E|------------------------------------------------------------|


VERSE B (with Palm Mute):

e|---------------|
B|---------------|
G|---------------|
D|-2--2-x-3--3-x-| x6
A|-2--2-x-3--3-x-|
E|-0--0-x-1--1-x-|

e|--------------|
B|--------------|
G|--------------|
D|-2-2---2-2--3-| x4
A|-2-2---2-2--3-|
E|-0-0---0-0--1-|

SOLO (as I can hear hehe, some sound still missing):

e|-------------------9-7---------------9-7-7-9-7---7----11--12-11----|
B|-0-------0-10-9--0------10-9-9~~~~-9-----------9----------------14-|
G|---11-9--------------------------------------------8---------------|
D|-------------------------------------------------------------------|
A|-------------------------------------------------------------------|
E|-------------------------------------------------------------------|

e|----------------0----7-8-9-10-11-12-11-------|
B|---------2--1/2---3-4-5-6-7--8--9------12-12-|
G|-------2-------------------------------------|
D|-----2---------------------------------------|
A|-0-4-----------------------------------------|
E|---------------------------------------------|

e|--------12-12--------12-12-----12--16-17-16---------------------------|
B|-----12-----------12--------12--------------17------------------------|
G|-8/9----------8/9-------------------------------13-14-----------------|
D|------------------------------------------------------14--------------|
A|---------------------------------------------------------14-12-11~~~~-|
E|----------------------------------------------------------------------|


/ = Slide
x = mute note

So now, it goes something like this:

Intro x2
Verse A x2
Pre-chorus
Chorus x2
Verse
Intro with lead guitar from Verse A x2
Pre-chorus
Chorus x2
verse A
Verse B
Solo
chorus x4 (first 2 withouth lead guitar, next 2 times, 4 times lead guitar)
Intro.

Leave comments please ^^ I don't care if they are for corrections XD
Tap to rate this tab
# A B C D E F G H I J K L M N O P Q R S T U V W X Y Z