Song name
# A B C D E F G H I J K L M N O P Q R S T U V W X Y Z

Jaromir Nohavica - Minulost tab

Jaromír Nohavica - Minulost

Tuning: Standard

Slohy:

     Dsus2                  A

e|---------0--------|---------0--------|
B|-----3-----3---3--|-----3-----3---3--|
G|---2---2-----2----|---3---3-----3----|
D|-0----------------|------------------|
A|------------------|-0----------------|
E|------------------|------------------|

     Emi                G         A

e|---------0--------|---------|---------|
B|-----0-----0---0--|-----2---|-----3---|
G|---0---0-----0----|-------0-|---3---3-|
D|------------------|---0-----|---------|
A|-2----------------|---------|-0-------|
E|------------------|-3-------|---------|

Ref.:

     Dsus2                  A

e|---------0--------|---------0--------|
B|-----3-----3---3--|-----3-----3---3--|
G|---2---2-----2----|---3---3-----3----|
D|-0----------------|------------------|
A|------------------|-0----------------|
E|------------------|------------------|

     Emi                    A               Dsus2

e|---------0--------|------------------|---------0--------|---------0--------|
B|-----0-----0---0--|-----3----3---3---|-----3-----3---3--|-----3-----3---3--|
G|---0---0-----0----|---3---3----3---3-|---2---2-----2----|---2---2-----2----|
D|------------------|------------------|-0----------------|-0----------------|
A|-2----------------|-0----------------|------------------|------------------|
E|------------------|------------------|------------------|------------------|


Tap to rate this tab
 
# A B C D E F G H I J K L M N O P Q R S T U V W X Y Z