Song name
# A B C D E F G H I J K L M N O P Q R S T U V W X Y Z

Jaron And The Long Road To Love - Pray For You chords

Highlighted       Show chord diagrams
By: Tyler Cox
-------------
-CAPO ON 3RD- [you dont have to but is sounds better]
-------------

Chords You Need To Know...

 G \/   |  D \/   |  Em \/  |  C \/   |  A7 \/
 ______ |  ______ |  ______ |  ______ |  ______
 --3--- |  -2---- | 0------ | 0------ | 0------|
 --3--- |  --3--- | 0------ |  1----- |  -2----|
0------ |  -2---- | 0------ | 0------ | 0------|
0------ | 0------ |  -2---- |  -2---- |  -2----|
 -2---- | x------ |  -2---- |  --3--- | 0------|
 --3--- | x------ | 0------ | x------ | x------|


or here...

     G      D      Em     C      A7      
E|---3------2------0------0------0---|
B|---3------3------0------1------2---|
G|---0------2------0------0------0---|
D|---0------0------2------2------2---|
A|---2------x------2------3------0---|
e|---3------x------0------x------x---|

--------------------------------------------------------------------------------------------
Other weird stuff i used...
G` = Starting with that chord, only strum one time for each chord untill your find "~"
C~ = Use the strumming pattern for below for each chord untill you find "`"
(sorry i hope you understand this is my first time make a tab thing lol)

--------------------------------------------------------------------------------------------
Strumming Pattern For Each Chord...
D = down
U = up
D[little pause],D,D,U[tini pause],D,D,U,D

--------------------------------------------------------------------------------------------
Tuning...
STANDARD!

--------------------------------------------------------------------------------------------

~~~~~~~~~~~~~~~~~~~~~~~~~
~~~Pray For You Chords~~~
~~~~~~~~~~~~~~~~~~~~~~~~~

~Into~
G`			 D
I haven't been to church since I don't remember when
Em			C
Things were going great till they fell apart again 
G			      D
So I listened to the preacher as he told me what to do
Em				   A7
He said you can't go hatin' others who have done wrong to you
Am		       G
Sometimes we get angry but we must not condemn
C			      D
Let the good Lord do his job, you just pray for them 

~Verse1~
C~
I pray your brakes go out runnin' down a hill
G
I pray a flower pot falls from a window sill
C					  G
And knocks you in the head like I'd like to
C
I pray your birthday comes and nobody calls
G				    D
I pray you're flyin' high when your engine stalls
Em		       A7
I pray all your dreams never come true
C				 D-
Just know wherever you are, honey, I pray for you

G

D		  C		  G
I'm really glad I found my way to church
D					C                    G		  
Cause I'm already feelin' better and I thank God for the words
Am				   C			
Yeah, I'm gonna take the high road and do what the preacher told me to do
Am		     C	                         D
You keep messin' up, and I'll keep prayin' for you

C
I pray your tire goes out at 110
G
I pray you pass out drunk with your best friend
C			     G	  D          Em         A7
And wake up with his and her tattos

C`
I pray your brakes go out runnin' down a hill
G
I pray a flower pot falls from a window sill
C					  G~
And knocks you in the head like I'd like to
C
I pray your birthday comes and nobody calls
G				    D
I pray you're flyin' high when your engine stalls
Em		       A7
I pray all your dreams never come true
C			    D
Just know wherever you are, near or far
C			 D
In your house or in your car
C		      D-
Wherever you are, honey, I pray for you

I pray for you
Tap to rate this tab
 
# A B C D E F G H I J K L M N O P Q R S T U V W X Y Z