Song name
# A B C D E F G H I J K L M N O P Q R S T U V W X Y Z

Jarris - Facade tab

Somebody else made a tab for this but the intro for the lead guitar was off so i decided
fix it. not many people know this band but this is for the people who do (this is the
as the other tab except for the intro, the strumming in the verse, and the bridge*sort 
I am going to be adding the verse variations  it was originally tabbed by patrick91)

Lead Intro: Plat 6 times                                |   end on   |
e|------------------------------------------------------|------------|
B|--7h9-9-9-9-5--9-9-9-5-12-12-12-12-12-5-7-7-7-7-7-7-7-|----9~------|
G|------------------------------------------------------|------------|
D|------------------------------------------------------|------------|
A|------------------------------------------------------|------------|
E|------------------------------------------------------|------------|

Intro guitar two: Play 1 time (this begins after 4 times of lead intro)
e|-----------------------------------------------------------------------|
B|-----------------------------------------------------------------------|
G|--66666666----------99999999----------666-66-6-666------------------6~-|
D|--66666666-77777777-99999999-99999999-666-66-6-666-777-77--9999999--6~-|
A|--44444444-77777777-77777777-99999999-444-44-4-444-777-77--9999999--4~-|
E|-----------55555555----------77777777--------------555-55--7777777-----|

Bridge part 1: Play 2 times (first time palm mute)
e|-------------------------------------------------------------------------|
B|-------------------------------------------------------------------------|
G|-9--9--9--9-9-9-xx-------------------6--6--6--6-6-6-xx-------------------|
D|-9--9--9--9-9-9-xx-7--7--7--7-7-7-xx-6--6--6--6-6-6-xx-9--9--9--9-9-9-xx-|
A|-7--7--7--7-7-7-xx-7--7--7--7-7-7-xx-4--4--4--4-4-4-xx-9--9--9--9-9-9-xx-|
E|-------------------5--5--5--5-5-5-xx-------------------7--7--7--7-7-7-xx-|

This is still a work in progress so i might have mistakes, and i still haven't added
part that i am going to add, check back for updates. my email is ben_tckr@yahoo.com if you
to send me any corrections or just to talk about guitar.
Tap to rate this tab
 
# A B C D E F G H I J K L M N O P Q R S T U V W X Y Z