Jarrod Gorbel - Ten Years Older tab

My first tab ever. Feedback to jrh_usmc@hotmail.com
Jarrod Gorbel, Ten Years Older (Intro)

Capo on 5th
e|------------------------0--1-1--0------------------------------|
B|------------------------1--1-1--1------------------------------|
G|-------0-0h2-0----------0--2-2--0-------0-0h2-0----------------|
D|-----2---------0h2-0----2--3-3--2-----2---------0h2-0----------|
A|---3-----------------3--3-------3---3-----------------3--------|
E|---------------------------------------------------------------|

e|---------------3-----------------------------------------------|
B|---1---1---1---0-----------------------------------------------|
G|---0---0h2-0---0-----------------------------------------------|
D|---2---0---0---0-----------------------------------------------|
A|---3---3---3---2-----------------------------------------------|
E|---------------3-----------------------------------------------|

Verse:
C, F, C

Pre Chorus:
C, F, G

Chorus:
Something, Something, Something

| /  slide up
| \  slide down
| h  hammer-on
| p  pull-off
| ~  vibrato
| +  harmonic
| x  Mute note
Tap to rate this tab
 
# A B C D E F G H I J K L M N O P Q R S T U V W X Y Z