Song name
# A B C D E F G H I J K L M N O P Q R S T U V W X Y Z

Jars Of Clay - Jealous Kind tab

Jars of Clay
Jealous Kind
Who We Are Instead

Capo on 3

Verse

  C      Asus2   C

--0--------------0--|
--1--------------1--|
--0--0----2--2---0--|  Play x 2 for intro, then x 3 for verse
--2----2--2---2--2--|
--3--------------3--|
--0--------------0--|

  C      Asus2   A    Asus4

--0--------------0---0--0--0---0--|
--1--------------0---0--0--0---0--|
--0--0----2--2---2---0--0--0---2--|  Play x 1 
--2----2--2---2--2---2--2--2---2--|
--3--------------2---3--3--3---2--|
--0--------------0---0--0--0---0--|

Chorus- You kinda need to make up your own rhythm here

    C                 G            Asus4         Asus2

----0-----------------2-------------0--------------0---|
----1-----------------3-------------0--------------0---|
----0-----------------0-------------0--------------2---|  Play x 2
----2-----------------0-------------2--------------2---|
----3-----------------3-------------3--------------0---|
----0-----------------3-------------0--------------0---|

...unfaithful...   ...lines...   ...tables...   ...kind...

...aisle...        ...find...    ...you...      ...kind...

The rest of the song is just repeating the verse and chorus until the bridge

Bridge

   C   G

---0---2--|
---1---3--|
---0---0--|  Played until the end
---2---0--|
---3---3--|
---0---3--|

This isn't perfect, but I think its a pretty good translation from piano.   



Tap to rate this tab
 
# A B C D E F G H I J K L M N O P Q R S T U V W X Y Z