Song name
# A B C D E F G H I J K L M N O P Q R S T U V W X Y Z

Jars Of Clay - Work tab

Song - Work
Artist - Jars of Clay
Album - Good Monsters

Standard Tuning - EADGBe

Chords -
G   (320033)
D   (x00232)
A   (x02220)
Bm  (x24422)
G5  (355xxx)
A5  (577xxx) or (x022xx)
B5  (799xxx) or (x244xx)
A/C#(977xxx) or (x422xx)

Hopefully this is a good layout of what the guitarist plays.

[Intro Riff]
|-x--x--x--x--x--x--x--x-|-x--x--x--x--x--x--x--x-| \
|-x--x--x--x--x--x--x--x-|-x--x--x--x--x--x--x--x-| |
|-4--4--4--4--6--6--6--6-|-7--7--7--7--9--9--9--9-| |
|-x--x--x--x--x--x--x--x-|-x--x--x--x--x--x--x--x-| |
|-2--2--2--2--4--4--4--4-|-5--5--5--5--7--7--7--7-| |
|-x--x--x--x--x--x--x--x-|-x--x--x--x--x--x--x--x-| |
  1  +  2  +  3  +  4  +   1  +  2  +  3  +  4  +   |
						    | 2x
|-0-----0--0-----0--0----|-0-----0--0-----0--0----| |
|-3-----3--3-----3--3----|-3-----3--3-----3--3----| |
|-2-----2--2-----2--2----|-2-----2--2-----2--2----| |
|-0-----0--0-----0--0----|-0-----0--0-----0--0----| |
|------------------------|------------------------| |
|------------------------|------------------------| |
  1  +  2  +  3  +  4  +   1  +  2  +  3  +  4  +   /


[Intro Riff 2]
|-x--x--x--x--x--x--x--x-|-x--x--x--x--x--x--x--x-| \
|-x--x--x--x--x--x--x--x-|-x--x--x--x--x--x--x--x-| |
|-4--4--4--4--6--6--6--6-|-7--7--7--7--9--9--9--9-| |
|-x--x--x--x--x--x--x--x-|-x--x--x--x--x--x--x--x-| |
|-2--2--2--2--4--4--4--4-|-5--5--5--5--7--7--7--7-| |
|-x--x--x--x--x--x--x--x-|-x--x--x--x--x--x--x--x-| |
  1  +  2  +  3  +  4  +   1  +  2  +  3  +  4  +   |
			  (second time)Just in      | 2x
|------------------------|------------------------| |
|------------------------|------------------------| |
|-11-11-11-11-12-12-12-12|-11-11-11-11-9--9--9--9-| |
|-x--x--x--x--x--x--x--x-|-x--x--x--x--x--x--x--x-| |
|-9--9--9--9--10-10-10-10|-9--9--9--9--7--7--7--7-| |
|------------------------|------------------------| |
  1  +  2  +  3  +  4  +   1  +  2  +  3  +  4  +   /


[Verse Riff]
  case
|------------------------|     \
|-3--3--3--0--0--0--0--0-|     |
|------------------------|     |
|------------------------| x 3 |
|------------------------|     |
|------------------------|     |
  1  +  2  +  3  +  4  +       |
  I  can  run  away	       | 2x
|-0--------0--------0----|     |
|-3--------3--------3----|     |
|-2--------2--------2----|     |
|-0--------0--------0----|     |
|------------------------|     |
|------------------------|     |
  1  +  2  +  3  +  4  +       /


[Verse Riff 2] - Sustain Chords

        Bm
I don't have a line of prospects

         A
that can give some kind of peace

         Bm
There is nothing left to cling to

         A
that can bring me sweet release


[Chorus Riff]
           G        D                 A
I have no fear of drowning, it's the breathing that's

  taking   all   this  work              Do you know
|-2-----x--2--2-----x--2-|-2-----x--2--2-----x--2-|
|-2-----x--2--2-----x--2-|-2-----x--2--2-----x--2-|
|-4-----x--4--4-----x--4-|-4-----x--4--4-----x--4-|
|-4-----x--4--4-----x--4-|-4-----x--4--4-----x--4-|
|-2-----x--2--2-----x--2-|-2-----x--2--2-----x--2-|
|-------x-----------x---|--------x-----------x----|
  1  +  2  +  3  +  4  +   1  +  2  +  3  +  4  + 


[Chorus Riff 2] - Palm Mute
                 What I mean              when I say\
|------------------------|------------------------| |
|------------------------|------------------------| |
|------------------------|------------------------| |
|-5--5--5--5--5--5--5--5-|-7--7--7--7--7--7--7--7-| |
|-5--5--5--5--5--5--5--5-|-7--7--7--7--7--7--7--7-| |
|-3--3--3--3--3--3--3--3-|-5--5--5--5--5--5--5--5-| |
  1  +  2  +  3  +  4  +   1  +  2  +  3  +  4  +   |
						    | 2x
                 I don't want    to be       alone  |
|------------------------|------------------------| |
|------------------------|------------------------| |
|-4--4--4--4--4--4--4--4-|-2--2--2--2--2--2--2--2-| |
|-4--4--4--4--4--4--4--4-|-2--2--2--2--2--2--2--2-| |
|-2--2--2--2--2--2--2--2-|-4--4--4--4--4--4--4--4-| |
|------------------------|------------------------| |
  1  +  2  +  3  +  4  +   1  +  2  +  3  +  4  +   /


[Intro Riff 2]


[Verse Riff]


[Verse Riff 2]


[Chorus Riff]
              G                D              A
Now all the demons look like prophets and I'm living out

  Every    word  they  speak                    Every...
|-2-----x--2--2-----x--2-|-0-----x--0--0-----x--0-|
|-2-----x--2--2-----x--2-|-2-----x--2--2-----x--2-|
|-4-----x--4--4-----x--4-|-2-----x--2--2-----x--2-|
|-4-----x--4--4-----x--4-|-2-----x--2--2-----x--2-| x2
|-2-----x--2--2-----x--2-|-0-----x--0--0-----x--0-|
|------------------------|------------------------|
  1  +  2  +  3  +  4  +   1  +  2  +  3  +  4  + 


[Verse Riff 2] x2

*NOTE: First time play

                 What I mean              when I say
|------------------------|------------------------|
|------------------------|------------------------|
|------------------------|------------------------|
|-5--5--5--5--5--5--5--5-|-7--7--7--7--7--7--7--7-|
|-5--5--5--5--5--5--5--5-|-7--7--7--7--7--7--7--7-|
|-3--3--3--3--3--3--3--3-|-5--5--5--5--5--5--5--5-|
  1  +  2  +  3  +  4  +   1  +  2  +  3  +  4  +

                 I don't want    to be       alone
|------------------------|------------------------|
|------------------------|------------------------|
|-4--4--4--4--4--4--4--4-|-4--4--4--4--4--4--4--4-|
|-4--4--4--4--4--4--4--4-|-4--4--4--4--4--4--4--4-|
|-2--2--2--2--2--2--2--2-|-2--2--2--2--2--2--2--2-|
|------------------------|------------------------|
  1  +  2  +  3  +  4  +   1  +  2  +  3  +  4  +

Then play once normally


[Solo]
|------------------------|----------------------10|
|----------------------10|-10-12-12-10-10-12-12---|
|-9--11-11-9--9--11-11---|------------------------|
|------------------------|------------------------|
|------------------------|------------------------|
|------------------------|------------------------|
  1  +  2  +  3  +  4  +   1  +  2  +  3  +  4  + 

|-10-12-12-10-10-12-12-10|-10-12-12-10-10-12-12-10|
|------------------------|------------------------|
|------------------------|------------------------|
|------------------------|------------------------|
|------------------------|------------------------|
|------------------------|------------------------|
  1  +  2  +  3  +  4  +   1  +  2  +  3  +  4  + 

|-10-10-10-10-9--9--9--9-|------------------------|
|------------------------|-12-12-12-12-10-10-10-10|
|------------------------|------------------------|
|------------------------|------------------------|
|------------------------|------------------------|
|------------------------|------------------------|
  1  +  2  +  3  +  4  +   1  +  2  +  3  +  4  + 

|------------------------|------------------------| \
|-9--9--9--9--9--9--9--9-|-8--8--8--8--8--8--8--8-| |
|------------------------|------------------------| |
|------------------------|------------------------| | 2x
|------------------------|------------------------| |
|------------------------|------------------------| |
  1  +  2  +  3  +  4  +   1  +  2  +  3  +  4  +   /


[Chorus Riff 2] - Loud with distortion

        G5           A5           B5
Do you know what it means when I say

         A/C#          G5
I don't want to be alone?

        A5          B5
What I mean when I say

         A/C#
I don't want to be


[Outro] - Strumming continues with this picking part over it

alone.
|------------------------| \
|------------------------| |
|------------------------| |
|-9--11-11-9--9--11-11-9-| | 8X
|------------------------| |
|------------------------| |
  1  +  2  +  3  +  4  +   /

Hold -

|----|
|----|
|-11-|
|----|
|----|
|----|


-To me, the ending sounds like piano only, but if you want to play chords...

           G       D                  A             Bm
I have no fear of drowning it's the breathing that's taking all this work.


Everything above was typed out by me (I didn't copy anything)
-Comment     -Rate      -Correct
        nytroxx@gmail.com
Tap to rate this tab
 
# A B C D E F G H I J K L M N O P Q R S T U V W X Y Z