Song name
# A B C D E F G H I J K L M N O P Q R S T U V W X Y Z

Jars Of Clay - Frail tab

Okay. I havent seen any other Frail tabs on the web so I guess this is the  
1st. Mail me if the 
tab is wrong. The part a's and b's mean that the riffs are different from  
each other. 

(P.S. Please dont send me a virus or anything guys. My dad will flip. Please  
don't.) 

1st riff  
e---2-------2-------2---------2-------2-------2-----------| 
B-------3-------3-----3-----------3-------3-----3---------| 
G-----0---0---0---0-------------0---0---0---0-------------| 
D-2-------------------------2-----------------------------| 
A---------------------------------------------------------| 
E---------------------------------------------------------| 

1st riff  
e---2-------2-------2---------2-------2-------2---0--------| 
B-------3-------3-----3-----------3-------3-----3----------| 
G-----0---0---0---0-------------0---0---0---0--------------| 
D-2-------------------------2------------------------------| 
A----------------------------------------------------------| 
E----------------------------------------------------------| 

1st riff  
e---2-------2-------2---------2-------2-------2h3----------| 
B-------3-------3-----3-----------3-------3----------------| 
G-----0---0---0---0-------------0---0---0---0--------------| 
D-2-------------------------2------------------------------| 
A----------------------------------------------------------| 
E----------------------------------------------------------| 


2nd riff  
e--------0-------0-------------0-------0----------| 
B----3-------3---------3---3-------3-----3--------| 
G------0---0---0-------------0---0---0-----0------| 
D-------------------------------------------------| 
A--3---------------3-2---0------------------------| 
E-------------------------------------------------| 

2nd riff  
e--------0-------0---------------0-------0---------| 
B----3-------3-----------3---3-------3-----3---3---| 
G------0---0---0---------------0---0---0-----0-----| 
D--------------------------------------------------| 
A--3-----------------3-2---0-----------------------| 
E--------------------------------------------------| 

3rd riff  
e---0-----2-----3-----2-----3-----3-----2-----0-----2-----3----| 
B-----3-----3-----3-----3-----3-----3-----3-----3-----3-----3--| 
G-------0-----0-----0-----0-----------0-----0-----0-----0------| 
D--------------------------------------------------------------| 
A-------------------------------3------------------------------| 
E-3------------------------------------------------------------| 

3rd riff  
e---3-----2-----0-----2-----3-----3-----2-----0-----2-----3----| 
B-----3-----3-----3-----3-----3-----3-----3-----3-----3-----3--| 
G-------0-----0-----0-----0-----------0-----0-----0-----0------| 
D--------------------------------------------------------------| 
A-------------------------------3------------------------------| 
E-3------------------------------------------------------------| 

4th riff (this ones kinda difficult but just keep practicing on it) 
e---2-----2-----2-----2---2h3-2-0-------0-------0----------------------| 
B-----3-----3-----3-----3-----------3-------3-----3--------------------| 
G-------2-----2-----2-----------------0---0---0-----0------------------| 
D-0--------------------------------------------------------------------| 
A---------------------------------3------------------------------------| 
E----------------------------------------------------------------------| 

4th riff  
e---2-----2-----2-----2---2h3-2-0-------0-------0---------------0------| 
B-----3-----3-----3-----3-----------3-------3-----------3---3-------3--| 
G-------2-----2-----2-----------------0---0---0---------------0---0----| 
D-0--------------------------------------------------------------------| 
A---------------------------------3-----------------3-2---0------------| 
E----------------------------------------------------------------------| 


Okay. So you know the riffs. Now here is the order to play the riffs in. 

Intro: 
1st riff  
2nd riff  
1st riff  
2nd riff  
1st riff  
2nd riff  
1st riff  
2nd riff  
3rd riff  
3rd riff  
4th riff  x3 
4th riff  

1st Verse: 
1st riff  
2nd riff  
1st riff  
2nd riff  

Chorus: 
3rd riff  
3rd riff  
4th riff  
4th riff  

2nd Verse: 
1st riff  
2nd riff  
1st riff  
2nd riff  

Chorus: 
3rd riff  
3rd riff  
4th riff  x3 
4th riff  

Yeah, well thats pretty much it. The verses and choruses are in order. Hope  
I didn't make it too complicated and all that. Thanks for reading this tab  
and happy playing all you guitar players out there.
Tap to rate this tab
# A B C D E F G H I J K L M N O P Q R S T U V W X Y Z