Song name
# A B C D E F G H I J K L M N O P Q R S T U V W X Y Z

Jars Of Clay - Show You Love tab

Tuning: Drop D (DAdGBE)

| x  rake muted string
| h  hammer-on
| ~  let ring
| \  slide down
| /  slide up
| *  natural harmonic

Really awesome song for acoustic. Great for listening. ;)

[Intro Riff]
E|--------------------------------------------|
B|--------------------------------------------|
G|--------------------------5-4-5-4--2-2-2-2--|
d|--x-x--4h5-4-2-0--0-0-0-0-0-0-0-0--0-0-0-0--|
A|--x-x--0---0-0-0--0-0-x-x-x-x-x-x--x-x------| 
D|--x-x--0---0-0-0--0-0-5-5-5-5-5-5--5-5------| 
                                                
E|---------------------------------------| \   
B|---------------------------------------| | Repeat this segment for all
G|---------------------5-4-5-4--2-2-2-2--| | other times that call for the
d|--4h5-4-2-0--0-0-0-0-0-0-0-0--0-0-0-0--| | riff; don't keep raking the
A|--0---0-0-0--0-0-x-x-x-x-x-x--x-x------| | strings as the start of the loop
D|--0---0-0-0--0-0-5-5-5-5-5-5--5-5------| /

[Verse 1] Play Intro Riff

[Chorus 1] If you don't think it goes this high, listen to the track. If you don't 
think it's the right octave, notice how the second part is noticeably lower (not 
higher) than the first part. I know it's awkward to play, but do your best ;)
E|--12-14--12-14--14-8-8-8-7--7-7--|
B|--15-15--15-15--15-8-8-8-8--8-8--|
G|--14-14--14-14--14-0-0-0-0--0-0--| x2
d|--0--0---0--0---0----------------|
A|---------------------------------|
D|---------------------------------|

E|--12-14--12-14--14-7~--|
B|--15-15--15-15--15-8~--|
G|--14-14--14-14--14-0~--|
d|--0--0---0--0---0--0~--|
A|-----------------------|
D|-----------------------|

[Post-Chorus]
E|--15-14-15-14--8--7--|
B|--15-15-15-15--8--8--|
G|--14-14-14-14--0--0--| x2
d|--0--0--0--0---0--0--|
A|--0--0--0--0---------|
D|---------------------|

[Verse 2] Play the Intro Riff underneath alternating D and G chords. The D chord 
is (00023-) and the G chord is (5x003-).

[Pre-Chorus]
E|--12-14--12-14--14-8--8-8-8-8-8--|
B|--15-15--15-15--15-8--8-8-8-8-8--|
G|--14-14--14-14--14-0--0-0-0-0-0--|
d|--0--0---0--0---0--0--0-0-0-0-0--|
A|--0--0---0--0---0----------------|
D|---------------------------------|

[Chorus 2]
E|--12-14--12-14--14-8-8-8-7--7-7--|
B|--15-15--15-15--15-8-8-8-8--8-8--|
G|--14-14--14-14--14-0-0-0-0--0-0--| x2
d|--0--0---0--0---0--0-0-0-0--0-0--|
A|--0--0---0--0---0----------------|
D|---------------------------------|

E|--12-14--12-14--14-7-7-7-7-7-7-7-12-12-12-12-12-12-12-12-12-12--|
B|--15-15--15-15--15-8-8-8-8-8-8-8-10-10-10-10-10-10-10-10-10-10--|
G|--14-14--14-14--14-0-0-0-0-0-0-0-9--9--9--9--9--9--9--9--9--9---|
d|--0--0---0--0---0--0-0-0-0-0-0-0-0--0--0--0--0--0--0--0--0--0---|
A|---------------------------------0--0--0--0--0--0--0--0--0--0---|
D|----------------------------------------------------------------|

[Bridge]
-	Part 1
{Gtr 1}
E|----------------------------------------------|
B|----------------------------------------------|
G|----------------------------------------------|
d|--7\-0-7/10-9\7-7\5~--4/5-7\-0-7/10-9\7-7\5~--|
A|----------------------------------------------|
D|----------------------------------------------|

{Gtr 2}
E|--0-2-2-0-2-2-0-8-8-8-7--7-7--|
B|--3-3-3-3-3-3-3-8-8-8-8--8-8--|
G|--2-2-2-2-2-2-2-0-0-0-0--0-0--|
d|--0-0-0-0-0-0-0-0-0-0-0--0-0--|
A|--0-0-0-0-0-0-0---------------|
D|------------------------------|

-	Part 2
E|-----------------------------------------------------------------|
B|-----------------------------------------------------------------|
G|-----------------------------------------------------------------|
d|--2-2-2-2-2-2-4-4-5-5-5-5-5-5-4-4-2-2-2-2-2-2-4-4-5-5-5-5-5-5-5--|
A|--2-2-2-2-2-2-4-4-5-5-5-5-5-5-4-4-2-2-2-2-2-2-4-4-5-5-5-5-5-5-5--|
D|--2-2-2-2-2-2-4-4-5-5-5-5-5-5-4-4-2-2-2-2-2-2-4-4-5-5-5-5-5-5-5--|

-	Part 3
{Gtr 1}
E|---------------------------|
B|---------------------------|
G|-----7*----7*----7*----7*--|
d|--7*----7*----7*----7*-----|
A|---------------------------|
D|---------------------------|

{Gtr 2}
E|--15-14-15-14----15-14-15-14--8--7--|
B|--15-15-15-15----15-15-15-15--8--8--|
G|--14-14-14-14----14-14-14-14--0--0--|
d|--0--0--0--0-----0--0--0--0---0--0--|
A|--0--0--0--0-----0--0--0--0---------|
D|------------------------------------|

[Chorus 3]
E|--12-14--12-14--14-8-8-8-7--7-7--|
B|--15-15--15-15--15-8-8-8-8--8-8--|
G|--14-14--14-14--14-0-0-0-0--0-0--| x2
d|--0--0---0--0---0--0-0-0-0--0-0--|
A|--0--0---0--0---0----------------|
D|---------------------------------|

E|--12-14--12-14--14-7-7-7-7-7-7-7--|
B|--15-15--15-15--15-8-8-8-8-8-8-8--|
G|--14-14--14-14--14-0-0-0-0-0-0-0--|
d|--0--0---0--0---0--0-0-0-0-0-0-0--|
A|----------------------------------|
D|----------------------------------|

Here, the {Gtr 1} section in the Bridge (Part 1) comes in and repeats till the 
end. Underneath it, this is repeated till the finish as well: 
E|--12-14--12-14--14-8-8-8-7--7-7--|
B|--15-15--15-15--15-8-8-8-8--8-8--|
G|--14-14--14-14--14-0-0-0-0--0-0--|
d|--0--0---0--0---0--0-0-0-0--0-0--|
A|--0--0---0--0---0----------------|
D|---------------------------------|

Finished! God bless. :)
Tap to rate this tab
 
# A B C D E F G H I J K L M N O P Q R S T U V W X Y Z