Jars Of Clay - Shelter tab

I only figured out the beginning so far, but it's a good start. And btw, such a great song.

Top to Bottom: eBGDAE


|---------0-------|---------0-------|---------0-------|---------0-------|
|-----------------|-----------------|-----------------|-----------------|
|-----8-------8---|-----8-------8---|-----8-------8---|-----8-------8---|
|---9---9---9---9-|---9---9---9---9-|---9---9---9---9-|---9---9---9---9-|
|-----------------|-----------------|-----------------|-----------------|
|-0---------------|-0---------------|-7---------------|-7---------------|
  1 & 2 & 3 & 4 &   1 & 2 & 3 & 4 &   1 & 2 & 3 & 4 &   1 & 2 & 3 & 4 &

|---------0-------|---------0-------|
|-----------------|-----------------|
|-----8-------8---|-----8-------8---|
|---9---9---9---9-|---9---9---9---9-|
|-0---------------|-0---------------|
|-----------------|-----------------|
  1 & 2 & 3 & 4 &   1 & 2 & 3 & 4 &

Tap to rate this tab
 
# A B C D E F G H I J K L M N O P Q R S T U V W X Y Z