Song name
# A B C D E F G H I J K L M N O P Q R S T U V W X Y Z

Jars Of Clay - Dead Man Carry Me Acoustic tab

Chords:
   Cm E  G#m 
|--4--4--4------|
|--5--5--4------|
|--6--4--4------|
|--6--6--6------|
|--4--7--6------|
|--------4------|

Intro and Verse:

repeat Cm E1 G#m

January 1, I've got a lot of things on my mind
I'm looking at my body through a new spy satellite
Try to lift a finger, but I don't think I can make the call
So tell me if I move, 'cause I don't feel anything at all

Chorus:

So Carry Me,
I'm just a dead man
Lying on the carpet
Can't find a heartbeat
Make me breathe,
I wanna be a new man
Tired of the old one
Out with the old plan

    A            E      B      C#m    A            E      B
e|---------------------------------------------------------------------------|
B|-----------------------------4---------------------------------------------|
G|--6-6-6-6------1------8------6-(x8)-6-6-6-6------1------8------------------|
D|--7-7-7-7-(x4)-2-(x8)-9-(x8)-6------7-7-7-7-(x2)-2-(x4)-9-(x4)-------------|
A|--7-7-7-7------2------9------5------7-7-7-7------2------9------------------|
E|--4/5-5-5------0------7-------------4/5-5-5------0------7------------------|
 
    E    F#m  C#m  B     A
e|---------------------------------------------------------------------------|
B|-----------------------2---------------------------------------------------|
G|--9999-8888-6666-4444--2---------------------------------------------------|
D|--9999-8888-6666-4444--2---------------------------------------------------|
A|--7777-6666-4444-2222--0---------------------------------------------------|
E|---------------------------------------------------------------------------|


Verse 2: 

same as verse 1

I woke up from a dream about an empty funeral
But is was better than the party full of people I don't really know
They've got hearts to break and burn
Dirty hands to feel the earth
There's something in my veins,
But I can't seem to make it work... won't work

Repeat Chorus

Bridge: 
  E                               Dm
E-----------------------------------------------------------------|
B-----------------------------------------------------------------|
G-----------------------------------------------------------------| 4x
D-------6-------6-------6-------6-------4-------4-------4-------4-| 
A-7-6-7---7-6-7---7-6-7---7-6-7---5-4-5---5-4-5---5-4-5---5-4-5---|
E-----------------------------------------------------------------|
  E                               Dm
E-------------------------------------------------------------5-5-|
B---------------------------------------------------------6-6-6-6-| let ring
G-------------------------------------------------7-7-7-7-7-7-7-7-|
D-------6-------6-------6-------6---------7-7-7-7-7-7-7-7-7-7-7-7-|
A-7-6-7---7-6-7---7-6-7---7-6-7---5-4-5---5-5-5-5-5-5-5-5-5-5-5-5-|
E-----------------------------------------------------------------|

Can you find a beat inside of me?
Any pulse?
Getting worse?
Any pulse?
Getting worse?
Inside of me, can you find a beat?

Repeat chorus

This is how I play the song acoustically. 

Credit given to hashm4g17 for having already tabbed out the bridge. 
Tap to rate this tab
# A B C D E F G H I J K L M N O P Q R S T U V W X Y Z