Song name
# A B C D E F G H I J K L M N O P Q R S T U V W X Y Z

Jars Of Clay - On Jordans Stormy Banks I Stand tab

"On Jordan's Stormy Banks I Stand"

copyright Marantha Music @2001

Tab author Kopijo


This is a tab that I put together if you are playing worship with the congragation. It's
not part of the original,
but it helps everyone singing follow the melody. If you have two guitars this lines up
with the chords of the Verse
as I have noted above the tab.


     G              C        G           D

e|---3--5--7--5--3--0--2--3--3--3-3-3-3--10--8--7--5-5-5-5-5---------|
B|-3-3--3--8--3--3--0--0--0--3--3-3-3-3---8--8--8--3-3-3-3-3---------|
G|---0--0--0--0--0---------------------------------------------------|
D|-------------------------------------------------------------------|
A|-------------------------------------------------------------------|
E|-------------------------------------------------------------------|




     G              C        G           D         G

e|---3--5--7--5--3--0--2--3--3--3-3-3-3--10--8--7--5-5-5-5-5---------|
B|-3-3--3--8--3--3--0--0--0--3--3-3-3-3---8--8--8--3-3-3-3-3---------|
G|---0--0--0--0--0---------------------------------------------------|
D|-------------------------------------------------------------------|
A|-------------------------------------------------------------------|
E|-------------------------------------------------------------------|
Tap to rate this tab
# A B C D E F G H I J K L M N O P Q R S T U V W X Y Z