Song name
# A B C D E F G H I J K L M N O P Q R S T U V W X Y Z

Jars Of Clay - Fly Farther tab

Author/Artist: Jars of Clay
Title: Fly Farther
Album: The White Elephant Sessions
Transcribed by: Breanne
Email: Itsjustbre@aol.com


You really have to listen to the cd for this one.  The song is awesome,
but this tab won't make a lot of sense unless you know the rythm pretty well.

Intro
---------0------------0----------------0------------0-------------------------|
-----4-----4------4-----4---4------4-----4------4-----4-----------------------|
---1---1-----1------1-----1------1---1-----1------1-----1---------------------|
------------------------------------------------------------------------------|
-2--------------2--------------0--------------0-------------------------------|
------------------------------------------------------------------------------|

---------0------------0----------------0--------------------------------------|
-----4-----4------4-----4---4------4-----4------------------------------------|
---1---1-----1------1-----1------1---1-----1----------------------------------|
------------------------------------------------------------------------------|
-2--------------2-------------------------------------------------------------|
-------------------------------2-------------2--------------------------------|

Verse
------------------------------------------------------------------------------|
---------0----------------0----------------0----------------0-----------------|
-----1-----1---1------1-----1---1------1-----1---1------1-----1---1-----------|
---2---2-----2------2---2-----2------2---2-----2------2---2-----2-------------|
------------------------------------------------------------------------------|
-4----------------4----------------2----------------2-------------------------|


---------0----------4-0----------0----------------0-----|-------0-------------|
-----------0-----------------------0---0------4-----4---|---4-----4---4-------|
-----1------------1----------1-------1------1---1-----1-|-----1-----1---------|
---2---2--------2----------2---2------------------------|---------------------|
-0------------0----------4----------------2-------------|-2-------------------|
--------------------------------------------------------|---------------------|
when you play the verse, play all before the column first, then play the
whole thing the second time

A E A2 D2

Verse

Chorus: A E A2 D2  A Am E A2

Verse: all before the column

Verse

Chorus

Bridge - You can figure this one out yourself, I couldn't figure out all of it

Verse: all the way through first, and then the play the part before the
column that starts with 2 and the part after the column

Chorus 2x

end with a chord I can't figure out and A2


Send any requests to <- electricpickboy@yahoo.com ->
Tap to rate this tab
# A B C D E F G H I J K L M N O P Q R S T U V W X Y Z