Guitaretab - guitar tabs
Song name
# A B C D E F G H I J K L M N O P Q R S T U V W X Y Z

Jars Of Clay - He Acoustic tab

Jars of Clay - He (Acoustic)
tabbed by Tangalicious

Sounds great with two acoustics, or one that alternates between both lead and
rhythm.  The strumming may be hard to follow, I recommend playing with the song
to get the right beat.  There are quite a bit of slight fills by the lead, but
they're all variations of the chords played by the rhythm.

Standard Tuning EADGBA


G/A:    G:    Gmaj7:  Cadd9:  C2:   Cadd9*:

--3--  --3--  --1--   --3--  --3--  --0--   
--3--  --3--  --2--   --3--  --3--  --3--  
--2--  --0--  --0--   --0--  --2--  --0--  
--0--  --0--  --0--   --2--  --0--  --2--   
--0--  --2--  --x--   --3--  --3--  --3--  
--3--  --3--  --3--   --x--  --x--  --x--     

  D:    Am:     C:

--2--  --0--  --0--
--3--  --1--  --1--
--2--  --2--  --2--
--0--  --2--  --0--
--0--  --0--  --3--
--0--  --0--  --0--

Guitar 1: Intro/Verse:

E ------------------------------------------------------
B ------------------------------------------------------
G -0--0--0----0--0--0--0--0--0----0-0-0---0-0-0-0-0-0---
D -x--x--x----x--x--x--x--x--x----x-x-x---x-x-x-x-x-x---
A -12-12-12-/-10-10-10-10-10-10-/-9-9-9-/-5-5-5-5-5-5---
E ------------------------------------------------------
[ Tab from: ]
E ------------------------------------------------------
B ------------------------------------------------------
G ------------------------------------------------------
D -9-9-9-7-7-7-7-7-7---0--0--0--0-0-0-0-0-0-------------
A -x-x-x-x-x-x-x-x-x---10-10-10-9-9-9-9-9-9-------------
E -8-8-8-8-8-8-8-8-8---8--8--8--8-8-8-8-8-8-------------

Guitar 2:

G/A          G        Gmaj7   G
Donít try to reach me
            Cadd9  C2  Cadd9 Cadd9*
Iím already dead
    G/A          G        Gmaj7   G
The pain when it grips me,
                   Cadd9  C2  Cadd9 Cadd9*
For things that Iíve done
       G                              Cadd9
Well I try to make you proud, but for crying out loud
     G                   Cadd9
Just give me a chance to hide away
     G              Cadd9
Exhaustion takes over,
          G              Cadd9   D   Am   G   C   D
Will this someday be over?

G       Cadd9     D       Cadd9
Fearful tears are running down
    G           Cadd9      D       Cadd9
The pain you've laid don't speak a sound
      G       Cadd9    D      Cadd9
Don't take my heart away from me
    G          Cadd9  D        
And they think I fell down ... again

[back to intro, then verse 2, then chorus]


A teardrop falls from up in the heavens
Drowning the sorrow of angels on high
For the least of the helpless, the hopeless, the loveless
My Jesus, His children, He holds in His eyes 


He loves you, He sees you
He knows you, protects you..  (repeated)

Related for He Acoustic tab