Song name
# A B C D E F G H I J K L M N O P Q R S T U V W X Y Z

Jars Of Clay - Show You Love tab

Jars of Clay: Show You Love

Tunning: Dropped D

D: x00232          \: Slide
G: 500022	   *: not played

Intro: x2 (strum)
E --**************************************--|
A --**************************************--|
D --**************************************--|
G --4-5-4-0----0-0-00----0-0-0-0----0-0-00--|
B --0-0-0-0----0-0-00----0-0-0-0----*-*-**--|
E --0-0-0-0----0-0-00----0-0-0-0----5-5-55--|

     Speak- say the words that no... Continues to
E --**************************************--
A --**************************************--
D --**************************************--
G --4-5-4-0----0-0-00----0-0-0-0----0-0-00--|
B --0-0-0-0----0-0-00----0-0-0-0----*-*-**--|
E --0-0-0-0----0-0-00----0-0-0-0----5-5-55--|


I'm gon-na show you-love    in-every-language
E --02*02*00------------------8887-777------|
A --33333333------------------8887-777------|
D --22222222--------------------------------|
G ------------------------------------------|
B ------------------------------------------|
E --********------------------5555-555------|


I'm gon-na speak the-words   that need no form
E --02*02*00------------------8887-777------|
A --33333333------------------8887-777------|
D --22222222--------------------------------|
G ------------------------------------------|
B ------------------------------------------|
E --********------------------5555-555------|


                     G (sustain w/o strumming)
I'm gon-na give you-what     you never had before.
E --02*02*00(sus last)----------------------|
A --33333333(sus last)----------------------|
D --22222222(sus last)----------------------|
G ------------------------------------------|
B ------------------------------------------|
E --********--------------------------------|

Guitar fill..

E --2323--3------------------8----7---|
A --3333--3------------------8----7---|
D --2222--2---------------------------|
G ------------------------------------|
B ------------------------------------|
E --****--*------------------5----5---|

Basiacally it restarts and goes on continually.
At the brige it's just D than G back and forth.  You can match the tabs with the other 
of the song fairly easily.
Tap to rate this tab
 
# A B C D E F G H I J K L M N O P Q R S T U V W X Y Z