Song name
# A B C D E F G H I J K L M N O P Q R S T U V W X Y Z

Jars Of Clay - Weighed Down tab

Highlighted       Show chord diagrams
Weighed Down
Jars of Clay
Much Afraid (1997)

Intro

C#maj7   E     F#maj7   A

e--------------------------|
b--------------------------|
g--6p4---1------3h4----2p1-|
d--6-----2------2------2---|
a--4-----2------x----------|
e---------------2----------|

Verse

continue intro through the verses

 C#maj7    E        F#maj7              A  C#maj7
   "Light of the world, are you still here?"
          E       F#maj7    A  C#maj7
   "And are we illuminating?"
                  E      F#maj7       A  C#maj7
   "When love becomes a delicate display"
               E            F#maj7   A
   "So weak, dissolved by anything"

Bridge

 Asus4   A    Bsus4   C#maj7
e-------------------------|
b-------------------------|
g--7-----2-----4-------6--|
d--7-----2-----4-------6--|
a--5-----------2-------4--|
e-------------------------|

Asus4    A              Bsus4    C#maj7  Asus4
   "Love lies here waiting all alone"
           A              Bsus4
   "Can a king be a king weighed down?"

Verse 2

C#maj7    E        F#maj7             A  C#maj7
   "Our hearts, a bubble makers dream"
          E             F#maj7        A  C#maj7
   "Moved on by winds of everything"
           E        F#maj7             A  C#maj7
   "As we deny that love is still the king"
                 E         F#maj7       A
   "Not as weak as we make him out to be"


 Asus4    A              Bsus4    C#maj7 Asus4
"Love lies here waiting all alone"
         A              Bsus4
"Can a king be a king weighed down?"


"Weighed down"
   A     E     G      A
e--------------2---------|
b--------------2---------|
g--2-----1------------2--|
d--2-----2------------2--|
a--------2-----2---------|
e--------------3---------|


 A E             G E
   "Weighed down"
 A E             G E
    "Weighed down"
 A E             G E
    "Weighed down"
 A E             G E
    "Weighed down"


Repeat Verse until the end
Tap to rate this tab
 
# A B C D E F G H I J K L M N O P Q R S T U V W X Y Z