Song name
# A B C D E F G H I J K L M N O P Q R S T U V W X Y Z

Jarvis Cocker - The Loss Adjuster Excerpt 1 2 tab

Artist: Jarvis Cocker
Song: The Loss Adjuster (Excerpt 1 & 2)
Album: The Jarvis Cocker Record

Hi, this song is so easy to play because it only last 00:27 seconds and is intrumental, 
enjoy...


    D                             A
e|--2-----2-----2-----2-----2-----0---|
B|-----3--3--------3--3--------3--2---|
G|--------2-----------2-----------2---|
D|--------0-----------0-----------2---|
A|--------------------------------0---|
E|------------------------------------|


    G     A     F     G
e|--3-----5-----1-----3---|
B|--3-----5-----1-----3---|
G|--4-----6-----2-----4---|
D|--5-----7-----3-----5---|
A|--5-----7-----3-----5---|
E|--3-----5-----1-----3---|


    G     A     F     G     G
e|--3-----5-----1-----3-----3---|
B|--3-----5-----1-----3-----3---|
G|--4-----6-----2-----4-----4---|
D|--5-----7-----3-----5-----5---|
A|--5-----7-----3-----5-----5---|
E|--3-----5-----1-----3-----3---|


easy cake... :D
Tap to rate this tab
 
# A B C D E F G H I J K L M N O P Q R S T U V W X Y Z