Song name
# A B C D E F G H I J K L M N O P Q R S T U V W X Y Z

Jarvis Cocker - Further Complications tab

Alright, this is the whole song. It's my first tab so may not be perfect but it sounds 
right. If you listen to the song you can get the timing and rhythm.

Standard Tuning

x - muted note
~ - let ring

INTRO

e|-------------|
B|-------------|
G|-------------|
D|-0--0--0000--|
A|-------------|
E|-------------|

MAIN RIFF - VERSE

e|-------------|
B|-------------|
G|-------------|
D|---5-7-0-----|
A|-5-----------|
E|-------------| x20

CHORUS
Fast downward strumming (x32)

e|--------------------------------------------------------------|
B|--------------------------------------------------------------|
G|--------------------------------------------------------------|
D|-77777777777777777777777777777777----5-7-0---5-7-0---5-7-0----|
A|-77777777777777777777777777777777--5-------5-------5--------5-|
E|-55555555555555555555555555555555-----------------------------|

VERSE

e|-------------|
B|-------------|
G|-------------|
D|---5-7-0-----|
A|-5-----------|
E|-------------| x16

CHORUS
Fast downward strumming (x32)then(x16)

e|-----------------------------------------------------|
B|-----------------------------------------------------|
G|-----------------------------------------------------|
D|-77777777777777777777777777777777-5555555555555555---|
A|-77777777777777777777777777777777-5555555555555555---|
E|-55555555555555555555555555555555-3333333333333333---|

|-------------------------------|
B|------------------------------|
G|------------------------------|
D|-----5-7-0---5-7-0---5-7-0----|
A|---5-------5-------5--------5-|
E|------------------------------|

VERSE

e|-------------|
B|-------------|
G|-------------|
D|---5-7-0-----|
A|-5-----------|
E|-------------| x23

CHORUS

e|---------------------------------------------------------------------|
B|---------------------------------------------------------------------|
G|---------------------------------------------------------------------|
D|-77777777777777777777777777777777-5555555555555555-3333333333333333--|
A|-77777777777777777777777777777777-5555555555555555-3333333333333333--|
E|-55555555555555555555555555555555-3333333333333333-1111111111111111--|

e|------------------------------|
B|------------------------------|
G|------------------------------|
D|-----5-7-0---5-7-0---5-7-0----|
A|---5-------5-------5--------5-|
E|------------------------------|

BRIDGE
SLAP BASS TYPE SOLO

G|----------|
D|--5-7-0---|
A|-5--------|
E|----------| x19

Whilst guitar plays on "I used to think that people..."

e|-22xxxx22xxxx22xxxx22xxxx22xxxx22xxxx22------------|
B|-33xxxx33xxxx33xxxx33xxxx33xxxx33xxxx33------------|
G|-22xxxx22xxxx22xxxx22xxxx22xxxx22xxxx22------------|
D|---------------------------------------------------|
A|---------------------------------------------------|
E|---------------------------------------------------|

CHORUS

e|---------------------------------------------------------------------|
B|---------------------------------------------------------------------|
G|---------------------------------------------------------------------|
D|-77777777777777777777777777777777-5555555555555555-3333333333333333--|
A|-77777777777777777777777777777777-5555555555555555-3333333333333333--|
E|-55555555555555555555555555555555-3333333333333333-1111111111111111--|

e|--------------------|
B|--------------------|
G|--------------------|
D|-3333333333333333---|
A|-3333333333333333---|
E|-1111111111111111---|

OUTRO

e|-------------|
B|-------------|
G|-------------|
D|---5-7-0-----|
A|-5-----------|
E|-------------| x19 getting slower then...

e|-------------|
B|-------------|
G|-------------|
D|---5-7-0-----|
A|-5-------5~--|
E|-------------|
Tap to rate this tab
 
# A B C D E F G H I J K L M N O P Q R S T U V W X Y Z