Song name
# A B C D E F G H I J K L M N O P Q R S T U V W X Y Z

Jarvis - Auschwitz To Ipswich tab

They Want Our Way Of Life (D)
E -2----------------------------------------|
B -3----------------------------------------|
G -2----------------------------------------|
D ------------------------------------------|
A ------------------------------------------|
E ------------------------------------------|

They Can Take Mine Any Time They Like (F#m)
E -2----------------------------------------|
B -2----------------------------------------|
G -2----------------------------------------|
D ------------------------------------------|
A ------------------------------------------|
E ------------------------------------------|

'Cos God Knows I Aint Living Right
E -3---3---3---3---3---3--------------------|
B -3---3---3---3---3---3--------------------|
G ------------------------------------------|
D ------------------------------------------|
A ------------------------------------------|
E ------------------------------------------|
Tap to rate this tab
# A B C D E F G H I J K L M N O P Q R S T U V W X Y Z