Song name
# A B C D E F G H I J K L M N O P Q R S T U V W X Y Z

Jaryd Lane - Country Boy Blues tab

E -------------------------------------|
B ---------11-11-13-13^-11----11-------|
G -----/10-----------------12----------|
D ---4---------------------------------|
A -2-----------------------------------|
E -------------------------------------|


E --13^-13-11-10-10h11p10--------------------------------------|
B ------------------------11----------11-13-13^-11----11h12p11-|
G ---------------------------10-10-12--------------12----------|
D -------------------------------------------------------------|
A -------------------------------------------------------------|
E -------------------------------------------------------------|

http://www.jarydlane.com
Tap to rate this tab
# A B C D E F G H I J K L M N O P Q R S T U V W X Y Z