Song name
# A B C D E F G H I J K L M N O P Q R S T U V W X Y Z

Jasmine Villegas - Natural chords

Highlighted       Show chord diagrams
NATURAL by JASMINE VILLEGAS
-----------------------------------------------------------------------------
Elisabeth K.
lissi9595@web.de

Jasmine Villegas - Official Website:
www.jasminevmusic.com

I tried to find out the chords for the song from this video,
so watch it for the strumming pattern:
http://www.youtube.com/watch?v=xe4NdiD-rF4&feature=channel_video_title

Chords:
   C  F5 G  Am  F  C* F5* Am* 
e|-0--0--3---0--1--3---3---3|
B|-1--1--3---1--1--1---1---1|
G|-0--0--0---2--2--0---0---2|
D|-2--3--0---2--3--2---3---2|
A|-3--0--2---0--3--3---0---0|
E|-0--0--3---0--1--0---0---0|




Intro:
  C	   F5         C        F5
e|---------------------------------------|
B|--1---1----1---1------1---1----1---1---|
G|-0-0-0-0--0-0-0-0----0-0-0-0--0-0-0-0--|
D|2---2----3---3------2---2----3---3-----|
A|---------------------------------------|
E|---------------------------------------|

C                      G
You're what keeps the stars hung up in the sky
Am                     F
You're what keeps the rivers from running dry
C                      G
You're what makes my heart go and skip a beat
Am           F
When you are inches away from me
C                G                      Am
There ain't no reason, there ain't no rhyme
             F                     C
But still it happens every single time
        G               Am
When we say , nothing at all
           F
Cause your kiss is so natural


C*                      F5*
Our first touch was like, wild fire
Am*                 F5*
Two hearts standing on a highwire
C*           F5*
Too young to know what's right
        G               F5*
But too much in love to try to fight it


C                     G
You're what keeps the stars hung up in the sky
Am                    F
You're what keeps the rivers from running dry
C                    G
You're what makes my heart go and skip a beat
Am           F
When you are inches away from me
C              G                        Am
There ain't no reason, there ain't no rhyme
             F                    C
But still it happens every single time
        G            Am
When we say nothing at all
           F
Cause your kiss is so natural


repeat C, G, Am, F
Oooooh..
Oooh, Ooh. 

(end with) C
Tap to rate this tab
 
# A B C D E F G H I J K L M N O P Q R S T U V W X Y Z