Song name
# A B C D E F G H I J K L M N O P Q R S T U V W X Y Z

Jason Aldean - Big Green Tractor tab

check out my youtube site for other videos http://www.youtube.com/user/benm1888

Inro
----------------------------------------------------------------------------|
-------------12-------------------------------------------------------------|
-9--11b-11br--x--11br--9--9h11--11br11b-11p9--11p9-----------9--------------|
--------------x------------------------------------11---9h11---11s14-11--9--|
----------------------------------------------------------------------------|
----------------------------------------------------------------------------|


Turn around after the first chorus


e---------------------------------------------------------------------------|
b---------------12-------------------12br-----------------------------------|
g--9--11b11br---x---11br---9--9h11----------11br---9------------------------|
d---------------x-----------------------------------------------------------|
a---------------------------------------------------------------------------|
E---------------------------------------------------------------------------|


Solo


e---------------------------------------------------------------------------|
b----------------12------------------------12--------12br-------------------|
g---9--11b11br---x---11br--9--9h11--9h11p9----9h11p9-----11-9---------------|
d----------------x--------------------------------------------11-9----------|
a------------------------------------------------------------------11-9--7--|
E---------------------------------------------------------------------------|

e---------------------------------------------------------------------------|
b---------------------------------------------------------------------------|
g-----------------9----11br-9---------11p9----------------------------------|
d------------9-11---11--------11p9h11---------------------------------------|
a---s7h9s11-----------------------------------------------------------------|
E---------------------------------------------------------------------------|

Outro is the same as the intro
Tap to rate this tab
# A B C D E F G H I J K L M N O P Q R S T U V W X Y Z