Song name
# A B C D E F G H I J K L M N O P Q R S T U V W X Y Z

Jason Aldean - Big Green Tractor tab

I don't know if its right but it sounds good.


e---------------------------------------------------------------------------|
B-------------12-----------------------12---------12br----------------------|
G----11-11b------11b--9--9h11---9h11p9-----9h11p9---------11-9--------------|
D--9------------------------------------------------------------11-9--------|
A---------------------------------------------------------------------11-9--|
E---------------------------------------------------------------------------|

e--------------------------------------------------|
B--------------------------------------------------|
G----------------9----9-11-13\11--9-11-9------9----|
D-----------9-11---11--------------------11-9------|
A---7h9/11-----------------------------------------|
E--------------------------------------------------|


b= bend
h= hammer on
p= pull off
br= bend and release
/= slide up
\= slide down
Tap to rate this tab
 
# A B C D E F G H I J K L M N O P Q R S T U V W X Y Z