Song name
# A B C D E F G H I J K L M N O P Q R S T U V W X Y Z

Jason Aldean - The Truth tab

Tabbed by:abbott764
email:abbott764@gmail.com

Tuning:CAPO ON 2!
Intro
e|--------------------------------------------------------------------------|
B|--------------------------b14r-b14r-11h12---------------------------------|
G|------------------------------------------12-----12------pb2r-2-0---------|
D|--pb8-pb8-7-5p-0-5---5/10------------------------12-----------------------|
A|--------------------------------------------------------------------------|
E|--------------------------------------------------------------------------|

Verse 1 and 2: G C G C G C G C D C D C
Chorus C G D C G D C Em D C C D
After Verse 2
C                                     G
The truth is that I'm asking you to lie,
            D                  C
And we both know that it ain't right,
                         G
But if you ever loved me please,
         D         C
Have some mercy on me,

Solo
e|-----------------12-10----------------------------------------------------|
B|-12/15--12-15 15-------pb10r-10-10-pb9---8-------------------------pb9r-8-|
G|---------------------------------------9-------------------pb7r-7---------|
D|--------------------------------------------9-10-pb11r11b-----------------|
A|--------------------------------------------------------------------------|
E|--------------------------------------------------------------------------|


 yeah that's the truth...(then)
e|-------------------|
B|-----10/3----------|
G|-7h9---------------|
D|-------------------|
A|-------------------|
E|-------------------|

I still need you....

e|--------------------|
B|--------------------|
G|-3b3/9--3b3/9-------|
D|--------------------|
A|--------------------|
E|--------------------|

I still love you....

e|----------------------------10-----10---------------------------------------|
B{--------8-8/10---10b8---10b----10b----10br-8---8----------------------------|
G|-7--7/9--------------------------------------9---------pb7r-7---------------|
D|----------------------------------------------------------------------------|
A|----------------------------------------------------------------------------|
E|----------------------------------------------------------------------------|

************************************

| /   slide up
| \   slide down
| h   hammer-on
| p   pull-off
| ~   vibrato
| +   harmonic
| x   Mute note
| b   Bend
| pb  Pre-bend
| br  Bend release
| pbr Pre-bend release
| brb Bend release bend

************************************
Tap to rate this tab
# A B C D E F G H I J K L M N O P Q R S T U V W X Y Z