Song name
# A B C D E F G H I J K L M N O P Q R S T U V W X Y Z

Jason Aldean - Hick Town tab

Hick town by Jason Aldean
Tuning: drop D    tune the low E-string of your guitar to a D bass

D-0-0-----------------0-0-----3-5-|  play
A------3-5-------3-5------3-5-----|  this
D-----------3-5-------------------|  four
G---------------------------------|  times
B---------------------------------|
E---------------------------------|

D-0-0---0-0-0--0-0-0--0--3-5------|
A---------------------------------|
D---------------------------------|
G---------------------------------|
B---------------------------------|
E---------------------------------|

D-0-0-----------------0-0-----3-5-|
A------3-5-------3-5------3-5-----|
D-----------3-5-------------------|
G---------------------------------|
B---------------------------------|
E---------------------------------|

D-0-0---0-0-0--0-0-0--0--3-5------|
A---------------------------------|
D---------------------------------|
G---------------------------------|
B---------------------------------|
E---------------------------------|

D-0-0-----------------0-0-----3-5-|
A------3-5-------3-5------3-5-----|
D-----------3-5-------------------|
G---------------------------------|
B---------------------------------|
E---------------------------------|

D-0-0---0-0-0--0-0-0--0--3-5------|
A---------------------------------|
D---------------------------------|
G---------------------------------|
B---------------------------------|
E---------------------------------|

D-0-0-----------------0-0-----3-5-|
A------3-5-------3-5------3-5-----|
D-----------3-5-------------------|
G---------------------------------|
B---------------------------------|
E---------------------------------|

D-0-0---0-0-0--0-0-0--0--3-5------|
A---------------------------------|
D---------------------------------|
G---------------------------------|
B---------------------------------|
E---------------------------------|

D-0-0-----------------0-0-----3-5-|
A------3-5-------3-5------3-5-----|
D-----------3-5-------------------|
G---------------------------------|
B---------------------------------|
E---------------------------------|

D-0--0--3-5--5-5-5-5-5------------|  play
A---------------------------------|  this
D---------------------------------|  three
G---------------------------------|  times
B---------------------------------|
E---------------------------------|

D-0-0-----------------0-0-----3-5-|  play
A------3-5-------3-5------3-5-----|  this
D-----------3-5-------------------|  twice
G---------------------------------|
B---------------------------------|
E---------------------------------|

D-0-0---0-0-0--0-0-0--0--3-5------|
A---------------------------------|
D---------------------------------|
G---------------------------------|
B---------------------------------|
E---------------------------------|

D-0-0-----------------0-0-----3-5-|
A------3-5-------3-5------3-5-----|
D-----------3-5-------------------|
G---------------------------------|
B---------------------------------|
E---------------------------------|

D-0-0---0-0-0--0-0-0--0--3-5------|
A---------------------------------|
D---------------------------------|
G---------------------------------|
B---------------------------------|
E---------------------------------|

D-0-0-----------------0-0-----3-5-|
A------3-5-------3-5------3-5-----|
D-----------3-5-------------------|
G---------------------------------|
B---------------------------------|
E---------------------------------|

D-0-0---0-0-0--0-0-0--0--3-5------|
A---------------------------------|
D---------------------------------|
G---------------------------------|
B---------------------------------|
E---------------------------------|

D-0-0-----------------0-0-----3-5-|
A------3-5-------3-5------3-5-----|
D-----------3-5-------------------|
G---------------------------------|
B---------------------------------|
E---------------------------------|

D-0-0---0-0-0--0-0-0--0--3-5------|
A---------------------------------|
D---------------------------------|
G---------------------------------|
B---------------------------------|
E---------------------------------|

D-0--0--3-5--5-5-5-5-5------------|  play
A---------------------------------|  this
D---------------------------------|  three
G---------------------------------|  times
B---------------------------------|
E---------------------------------|

D-0-------------------------------|
A----9-8-7-5-5--------------------|
D----9-8-7-5-5--------------------|
G---------------------------------|
B---------------------------------|
E---------------------------------|

D-0--0--3-5--5-5-5-5-5------------|  play
A---------------------------------|  this
D---------------------------------|  three
G---------------------------------|  times
B---------------------------------|
E---------------------------------|

D-0-0-----------------0-0-----3-5-|  play
A------3-5-------3-5------3-5-----|  this
D-----------3-5-------------------|  six
G---------------------------------|  times
B---------------------------------|  and mute all except last
E---------------------------------|

D-0--0--3-5--5-5-5-5-5------------|  play
A---------------------------------|  this
D---------------------------------|  six
G---------------------------------|  times
B---------------------------------|
E---------------------------------|

D-0-0-----------------0-0-----3-5-|  play
A------3-5-------3-5------3-5-----|  this
D-----------3-5-------------------|  four
G---------------------------------|  times
B---------------------------------|
E---------------------------------|

D-0-0---0-0-0--0-0-0--0--3-5------|  play
A---------------------------------|  this
D---------------------------------|  twice
G---------------------------------|
B---------------------------------|
E---------------------------------|

D-0-0-----------------0-0-----3-5-|  play
A------3-5-------3-5------3-5-----|  this
D-----------3-5-------------------|  four
G---------------------------------|  times
B---------------------------------|
E---------------------------------|

D-0--0--3-5--5-5-5-5-5------------|  play
A---------------------------------|  this
D---------------------------------|  twice
G---------------------------------|  and fade off of last
B---------------------------------|
E---------------------------------|

Tab Made By: Grant Connick
Tap to rate this tab
 
# A B C D E F G H I J K L M N O P Q R S T U V W X Y Z