Song name
# A B C D E F G H I J K L M N O P Q R S T U V W X Y Z

Jason Aldean - Do You Wish It Was Me tab

Played Along with song sounds really close try it out

Drop D Tuning

E--------------------------------------------------------------------------|
B--------------------------------------------------------------------------|
G--------------------------------------------------------------------------|
D--------------------------------------------------------------------------|
A-------1/2-0---------------1/2-0---------------1/2-0-----0-------1/2------|
D--0--0--------5--5----0--0--------5--2----0--0--------5----0--0------5-2--|

E---------------------------------------|
B---------------------------------------|
G---------------------------------------|
D---------------------------------------|
A-------1/2-0-----0--------1/2-0--------|
D--0--0--------5-----0--0---------5--5--|

Please if you see need for any corrections let me know

hillcambridge3@yahoo.com
Tap to rate this tab
 
# A B C D E F G H I J K L M N O P Q R S T U V W X Y Z