Song name
# A B C D E F G H I J K L M N O P Q R S T U V W X Y Z

Jason Aldean - My Kinda Party tab

This is my first tab so I hope I did ok...I'm currently tabing out the ending solo 
so be patient it will be up shortly.
Also, just listen to the song to pick up the picking pattern and rythem and you'll 
be sounding just like the song.

Any questions or comments please feel free to email me at drpetrus@marauder.millersville.edu

Please Rate and ENJOY!!! :D

Intro
e|-----------------------------------------------------------------|
B|-/17--15-12~----/17--15--8~----/17--15--11--8-10^12^10--8-8h10~\-|
G|-----------------------------------------------------------------| X2
D|-----------------------------------------------------------------|
A|-----------------------------------------------------------------|
E|-----------------------------------------------------------------|

Main Riff/Chorus
e|--------------------------------------------------|
B|--------------------------------------------------|
G|--5----8----3---------3---------------------------| X2
D|--5----8----3----6----3---------------------------|
A|--3----6----1----6----1---------------------------|
E|-----------------4--------------------------------|

Pre-Chorus
e|--------------------------------------------------|
B|--------------------------------------------------|
G|-------3---------3--------------------------------| 
D|--6----3----6----3--------------------------------|
A|--6----1----6----1--------------------------------|
E|--4---------4-------------------------------------|

Main Riff/Chorus
e|--------------------------------------------------|
B|--------------------------------------------------|
G|--5----8----3---------3---------------------------| X2
D|--5----8----3----6----3---------------------------|
A|--3----6----1----6----1---------------------------|
E|-----------------4--------------------------------|

Intro Lick
e|-----------------------------------------------------------------|
B|-/17--15-12~---/17--15--8~----/17--15--11--8-10^12^10--8-8h10\---|
G|-----------------------------------------------------------------| 
D|-----------------------------------------------------------------|
A|-----------------------------------------------------------------|
E|-----------------------------------------------------------------|

Bridge
e|--------------------------------------------------|
B|--------------------------------------------------|
G|--5-5-5-5-3-3-x-3--3-5----------------------------| X4
D|--------------------------------------------------|
A|--------------------------------------------------|
E|--------------------------------------------------|

e|--------------------------------------------------| 
B|--------------------------------------------------|
G|--x-x-x-5-3-3-x-3--3-5---X3------------------3----|
D|----------------------------------------6----3----|
A|----------------------------------------6----1----|
E|----------------------------------------4---------|
Pre-Chorus
e|--------------------------------------------------|
B|--------------------------------------------------|
G|-------3---------3--------------------------------|
D|--4----3----6----3--------------------------------|
A|--4----1----6----1--------------------------------|
E|--6---------4-------------------------------------|

Chorus
e|--------------------------------------------------|
B|--------------------------------------------------|
G|--5----8----3---------3---------------------------| X2
D|--5----8----3----6----3---------------------------|
A|--3----6----1----6----1---------------------------|
E|-----------------4--------------------------------|

First Solo
e|--------------------------------------------------|
B|------------12^14-12^14------------12^14-12^14----|
G|--9^12-9^12--------------9^12-9^12----------------|
D|--------------------------------------------------|
A|--------------------------------------------------|
E|--------------------------------------------------|

e|--------------12\-----------------------------------------------|
B|--8--------8--12\-----------------------------------------------|
G|--10^12r10-8--12\----------------------------8h10-10^12-10^12~--|
D|--------------12\------------6h8-6h8/10-8h10--------------------|
A|--------------12\--------6h8------------------------------------|
E|--------------12\----6h8----------------------------------------|

e|--12\------------------------------------------------|
B|--12\----15^17-15^17~--------------------------------|
G|--12\------------------------------------------------|
D|--12\------------------------------------------------|
A|--12\------------------------------------------------|
E|--12\------------------------------------------------|


e|--------------------------------------------------|
B|--------------------------------------------------|
G|-----------------------3---------3----------------|
D|-----------------------3----6----1----------------|
A|-----------------------1----6----1----------------|
E|----------------------------4---------------------|

Closing Lick
e|-----------------------------------------------------------------|
B|-/17--15-12~----/17--15--8~--------------------------------------|
G|-----------------------------------------------------------------| 
D|-----------------------------------------------------------------|
A|-----------------------------------------------------------------|
E|-----------------------------------------------------------------|

e|-----------------------------------------------------------------|
B|--/17--15--11--8-10^12^10--8-8h10-10^12^10^12^10^12-8------------|
G|-----------------------------------------------------------------| 
D|-----------------------------------------------------------------|
A|-----------------------------------------------------------------|
E|-----------------------------------------------------------------|
Tap to rate this tab
 
# A B C D E F G H I J K L M N O P Q R S T U V W X Y Z