Song name
# A B C D E F G H I J K L M N O P Q R S T U V W X Y Z

Jason Aldean - Dont You Wanna Stay tab

Standard Tuning

Intro:

e|----------------------2--4------------------------------------------|
B|--2--4--2--4--2--4----------4----4----2----2------------------------|
G|--------------------------------------------------------------------|
D|--------------------------------------------------------------------|
A|--------------------------------------------------------------------|
E|--------------------------------------------------------------------|

e|----------------------2--4-------2----------------------------------|
B|--2--4--2--4--2--4----------4-------2----4--0-----------------------|
G|--------------------------------------------------------------------|
D|--------------------------------------------------------------------|
A|--------------------------------------------------------------------|
E|--------------------------------------------------------------------|

Verse (here are the tabs and the chords, you can use whichever):

e|--------------------------------------------------------------------|
B|--------------------------------------------------------------------|
G|------------------------4-------------------------------------------|(2x)  
D|--4--6--4--6--4--6---------6--4----4--------------------------------|
A|--------------------------------------------------------------------|
E|--------------------------------------------------------------------|
    G#m              E               B
    I really hate to let this moment go
    G#m                        E             B
    Touching your skin and your hair falling slow

e|--------------------------------------------------------------------|
B|--------------------------------------------------------------------|
G|-----4--6--4-------6--4--0------------------------------------------|
D|--6------------6----------------------------------------------------|
A|--------------------------------------------------------------------|
E|--------------------------------------------------------------------|
    E                   Em
    When a goodbye kiss feels like this

Chorus:
B                    G#m    F#
Don't you wanna stay here a little while
                C#m
Don't you wanna hold each other tight 
                E                F#
Don't you wanna fall asleep with me tonight
B                    G#m    F#
Don't you wanna stay here a little while
            C#m
We can make forever feel this way
E
Don't you wanna stay    


Instrumental (ALMOST exactly like the intro):

e|------------------------2--4-------2----------4---------------------|
B|--2--4--2--4--2--4------------4-------2----4------------------------|
G|--------------------------------------------------------------------|
D|--------------------------------------------------------------------|
A|--------------------------------------------------------------------|
E|--------------------------------------------------------------------|

e|------------------------2--4-------2--------------------------------|
B|--2--4--2--4--2--4------------4------2----4--0----------------------|
G|--------------------------------------------------------------------|
D|--------------------------------------------------------------------|
A|--------------------------------------------------------------------|
E|--------------------------------------------------------------------|


Verse (again, tabs and chords)

e|--2--4--2--4--2--4--7--4-4--2----2----------------------------------|
B|--------------------------------------------------------------------|
G|--------------------------------------------------------------------|
D|--------------------------------------------------------------------|
A|--------------------------------------------------------------------|
E|--------------------------------------------------------------------|
    G#m                  E                    B
    Let's take it slow I don't wanna move too fast

e|--2--4--2--4--4--7--4--4--4--2----2---------------------------------|
B|--------------------------------------------------------------------|
G|--------------------------------------------------------------------|
D|--------------------------------------------------------------------|
A|--------------------------------------------------------------------|
E|--------------------------------------------------------------------|
    G#m                   E                  B
    Don't wanna just make love, I wanna make love last

e|--4--7--9--7--4----4--7--9--7--11-12-11--9--7-----------------------|
B|--------------------------------------------------------------------|
G|--------------------------------------------------------------------|
D|--------------------------------------------------------------------|
A|--------------------------------------------------------------------|
    E                                Em
    When youíre off this cab, itís a sad goodbye


Chorus (2x):
B                    G#m    F#
Don't you wanna stay here a little while
                C#m
Don't you wanna hold each other tight 
                E                F#
Don't you wanna fall asleep with me tonight
B                    G#m    F#
Don't you wanna stay here a little while
            C#m
We can make forever feel this way
E                        A
Don't you wanna stay    


   C#m
Oh yeah
B                 A
Oh it feels so perfect baby
                       C#m
Oh it feels so perfect, baby
B                    G#m    F#               C#m
Don't you wanna stay here a little while


Repeat Chorus:
B                    G#m    F#
Don't you wanna stay here a little while
                C#m
Don't you wanna hold each other tight 
                E                F#
Don't you wanna fall asleep with me tonight
B                    G#m    F#
Don't you wanna stay here a little while
            C#m
We can make forever feel this way
E                                          
Don't you wanna stay    

Instrumental:
G#m (4 down strokes)
E (5 down strokes, 1 up stroke)
B
F#

                G#m (4 strokes)    E (5 down strokes, 1 up)      B     F#
Don't you wanna stay
G#m (4 down strokes)   
Yeah,         
E (5 down strokes, 1 up)            
yeah, 
B        F#
yeah
G#m (4 down strokes)   
Yeah,         
E (5 down strokes, 1 up)            
yeah, 
B        F#
yeah

Instrumental:
G#m (4 down strokes)
E (5 down strokes, 1 up)
B
F
G#m (4 down strokes)
E (5 down strokes, 1 up)
B
F
G#m (4 down strokes)
E (5 down strokes)
B
Tap to rate this tab
 
# A B C D E F G H I J K L M N O P Q R S T U V W X Y Z