Song name
# A B C D E F G H I J K L M N O P Q R S T U V W X Y Z

Jason Aldean - Back In This Cigarette tab

Jason Aldean - Back In This Cigarette

Tabbed by nenewman1

Standard Tuning EADGBe
X - Palm mute
h - Hammer-on
s - Slide
p - Pull-off
~ - Vibrato
b - bend
/ - slide up
\ - slide down

Chords:
Dm: 132000
Bb: 143211
Am: 012200
F:  112331
C:  010230
Eb: 342100

Intro Part 1
0:00 - 0:05
e----------------------------------------------------------|
B----------------------------------------------------------|
G----------------------------------------------------------|
D------2-3-3-2~2~-3-3--------------2-3-3-2~2-3-3-----------|		
A--1h3----------------3p1-1-1-1h3---------------3p1-1-0----|		
E----------------------------------------------------------|		
                                                             >X2
0:06 - 0:11 								  
e----------------------------------------------------------|		
B----------------------------------------------------------|	
G----------------------------------------------------------|
D--2h3-3-3-3-1/2~-0----2h3-3-3-3-1/2-2-3-2-0---------------|
A------------------3-3-----------------------3p1-----------|
E----------------------------------------------------------|


Verse
0:23 - 0:46 
It's two a.m...
e----------------------------------------------------------|
B----------------------------------------------------------|
G----------------------------------------------------------|
D------2-3-3-2~2~-3-3-------------2-3-3-2~2-3-3------------|		
A--1h3----------------3p1-1-1-1h3---------------3p1-1-0----|		
E----------------------------------------------------------|
                                                               >X2
e----------------------------------------------------------|		
B----------------------------------------------------------|	
G----------------------------------------------------------|
D--2h3-3-3-3-1/2~-0----2h3-3-3-3-1/2-2-3-2-0---------------|
A------------------3-3-----------------------3p1-----------|
E----------------------------------------------------------|


Pre-Chorus
0:46 - 1:01 
Counting regrets...
   Dm	       Bb       Am        Bb
e--1---------1--------0--------1----------|
B--3---------4--------1--------4----------|
G--2---------3--------2--------3----------|
D------------2--------2--------2----------|
A------------1--------0--------1----------|
E------------1--------0--------1----------|


Chorus
1:00 - 1:24 
Calling your name, it's a waste of my breath...
	              Dm                        Bb
e--------------1-------------------------1----|
B--------------3-------------------------4----|
G--------------2-------------------------3----|
D----------------------------------------2----|
A----------------------------------------1----|
E----------------------------------------1----|

There's no reaching you across this cold and empty bed...
               F          C                   Dm        C
e--------------1----------0-------------------1---------0-----------|
B--------------1----------1-------------------3---------1-----------|
G--------------2----------0-------------------2---------0-----------|
D--------------3----------2-----------------------------2-----------|
A--------------3----------3-----------------------------3-----------|
E--------------1----------0-----------------------------0-----------|

   Stirrin' up ashes tryin' to find passion...
   Bb                  Dm
e--1-------------------1-----|
B--4-------------------3-----|
G--3-------------------2-----|
D--2-------------------------|
A--1-------------------------|
E--1------------------=------|

  Where's there's no love left...
   C              Bb
e--0--------------1---------|
B--1--------------4---------|
G--0--------------3---------|
D--2--------------2---------|
A--3--------------1---------|
E--0--------------1---------|

It's like trying to put smoke      back in this cigarette...
             Dm           C    Bb
e------------1------------0----1-----|
B------------3------------1----4-----|
G------------2------------0----3-----|
D-------------------------2----2-----|
A-------------------------3----1-----|
E-------------------------0----1-----|


Verse
1:26 - 2:01
Come sunrise I guess...
e----------------------------------------------------------|
B----------------------------------------------------------|
G----------------------------------------------------------|
D------2-3-3-2~2~-3-3-------------2-3-3-2~2-3-3------------|		
A--1h3----------------3p1-1-1-1h3---------------3p1-1-0----|		
E----------------------------------------------------------|
                                                             >X3
e----------------------------------------------------------|		
B----------------------------------------------------------|	
G----------------------------------------------------------|
D--2h3-3-3-3-1/2~-0----2h3-3-3-3-1/2-2-3-2-0---------------|
A------------------3-3-----------------------3p1-----------|
E----------------------------------------------------------|


Pre-Chorus
2:02 - 2:14 
Hangin' my hopes on highway signs...
   Dm        Bb       Am       Bb
e--1---------1--------0--------1----------|
B--3---------4--------1--------4----------|
G--2---------3--------2--------3----------|
D------------2--------2--------2----------|
A------------1--------0--------1----------|
E------------1--------0--------1----------|


Chorus
2:15 - 2:48 
Calling your name, it's a waste of my breath...
               Dm                        Bb
e--------------1-------------------------1----|
B--------------3-------------------------4----|
G--------------2-------------------------3----|
D----------------------------------------2----|
A----------------------------------------1----|
E----------------------------------------1----|

There's no reaching you across this cold and empty bed...
               F          C                   Dm        C
e--------------1----------0-------------------1---------0-----------|
B--------------1----------1-------------------3---------1-----------|
G--------------2----------0-------------------2---------0-----------|
D--------------3----------2-----------------------------2-----------|
A--------------3----------3-----------------------------3-----------|
E--------------1----------0-----------------------------0-----------|

   Stirrin' up ashes tryin' to find passion...
   Bb                  Dm
e--1-------------------1-----|
B--4-------------------3-----|
G--3-------------------2-----|
D--2-------------------------|
A--1-------------------------|
E--1------------------=------|

  Where's there's no love left...
   C              Bb
e--0--------------1---------|
B--1--------------4---------|
G--0--------------3---------|
D--2--------------2---------|
A--3--------------1---------|
E--0--------------1---------|

It's like trying to put smoke      back in this cigarette...
             Dm           C    Bb
e------------1------------0----1-----|
B------------3------------1----4-----|
G------------2------------0----3-----|
D-------------------------2----2-----|
A-------------------------3----1-----|
E-------------------------0----1-----|


Bridge
2:48 - 3:00
   I may never know your reasons why...
   Bb
e--1--------------------------------|
B--4--------------------------------|
G--3--------------------------------|
D--2--------------------------------|
A--1--------------------------------|
E--1--------------------------------|

But someday I'm gonna see the good in your goodbye...
      Dm                              Eb
e-----1-------------------------------3--|
B-----3-------------------------------4--|
G-----2-------------------------------2--|
D-------------------------------------1--|
A-------------------------------------0--|
E-------------------------------------0--|

					
Chorus
3:01 - 3:29
Calling your name, it's a waste of my breath..,
               Dm                          Bb
e--------------1---------------------------1----|
B--------------3---------------------------4----|
G--------------2---------------------------3----|
D------------------------------------------2----|
A------------------------------------------1----|
E------------------------------------------1----|

There's no reaching you across this cold and empty bed...
               F          C                   D         C
e--------------1----------0-------------------1---------0-----------|
B--------------1----------1-------------------3---------1-----------|
G--------------2----------0-------------------2---------0-----------|
D--------------3----------2-----------------------------2-----------|
A--------------3----------3-----------------------------3-----------|
E--------------1----------0-----------------------------0-----------|

   Stirrin' up ashes tryin' to find passion...
   Bb                  Dm
e--1-------------------1-----|
B--4-------------------3-----|
G--3-------------------2-----|
D--2-------------------------|
A--1-------------------------|
E--1------------------=------|

  Where's there's no love left...
   C              Bb
e--0--------------1---------|
B--1--------------4---------|
G--0--------------3---------|
D--2--------------2---------|
A--3--------------1---------|
E--0--------------1---------|

It's like trying to put smoke      back in this cigarette...
             Dm           C     Bb
e------------1------------0-----1-----|
B------------3------------1-----4-----|
G------------2------------0-----3-----|
D-------------------------2-----2-----|
A-------------------------3-----1-----|
E-------------------------0-----1-----|


Verse
3:28 - 4:30
e----------------------------------------------------------|
B----------------------------------------------------------|
G----------------------------------------------------------|
D------2-3-3-2~2~-3-3-------------2-3-3-2~2-3-3------------|		
A--1h3----------------3p1-1-1-1h3---------------3[1-1-0----|		
E----------------------------------------------------------|
                                                              >X5
e----------------------------------------------------------|		
B----------------------------------------------------------|	
G----------------------------------------------------------|
D--2h3-3-3-3-1/2~-0----2h3-3-3-3-1/2-2-3-2-0---------------|
A------------------3-3-----------------------3p1-----------|
E----------------------------------------------------------|



Lyrics:
It's two A.M. in my new home, this motel room
An ash tray full of lucky strikes
A half spent case of warm Bud Lite
Countin' regrets, fightin' back tears
Retracin' steps, gettin' no where

[Chorus]
Callin' your name, it's a waste of my breath
There's no reachin' you across this cold and empty bed
Stirrin' up ashes, tryin' to find passion
Where there's no love left
It's like tryin' to put smoke back in this cigarette

Come sunrise, guess I'll checkout and ditch this town
Put a few more miles between us
And keep driving till I finally mend my broken trust
Hangin' my hopes on highway signs
If I lie here, I'll loose my mind

[Chorus]
Callin' your name, it's a waste of my breath
There's no reachin' you across this cold and empty bed
Stirrin' up ashes, tryin' to find passion
Where there's no love left
It's like tryin' to put smoke back in this cigarette

I may never know your reasons why
But someday I'm gonna see the good in your goodbye

Callin' your name, it's a waste of my breath
There's no reachin' you across this empty bed
Stirrin' up ashes, tryin' to find passion
Where there's no love left
It's like tryin' to put smoke back in this cigarette
Tap to rate this tab
# A B C D E F G H I J K L M N O P Q R S T U V W X Y Z