Song name
# A B C D E F G H I J K L M N O P Q R S T U V W X Y Z

Jason Aldean - My Kinda Party tab

my first tab :D

intro:
e------------------------------------------------------------------|
b----11/13--11--8-----11/13--11-------11/13--11--8-----------------|
g--------------------------------8-----------------8-10brb-8-10----| x2
d------------------------------------------------------------------|
a------------------------------------------------------------------|
E------------------------------------------------------------------|

Verse
e------------------------------|
b------------------------------|
g---5---8---3-------3----------|
d---5---8---3---4---3----------|x2
a---3---6---1---4---1----------|
E---------------6--------------|

Pre chorus
e-------------------------------------|
b-------------------------------------|
g------3------3-----------------------|
d--4---3---6---3----------------------|
a--4---1---6---1----------------------|
E--6-------4--------------------------|

Chorus
e-----------------------------------|
b-----------------------------------|
g--5---8---3-------3----------------| x2
d--5---8---3---4---3----------------|
a--3---6---1---4---1----------------|
E--------------6--------------------|

intro again
intro:
e------------------------------------------------------------------|
b----11/13--11--8-----11/13--11-------11/13--11--8-----------------|
g--------------------------------8-----------------8-10brb-8-10----| x2
d------------------------------------------------------------------|
a------------------------------------------------------------------|
E------------------------------------------------------------------|


2nd verse

e|----------------------------------------------------|
b|----------------------------------------------------|
g|--5-5-5-5-3-3-x-3--3-5-----X6---------3-------------|
d|----------------------------------6---3-------------|
a|----------------------------------6---1-------------|
E|----------------------------------4-----------------|


Pre chorus
e-------------------------------------|
b-------------------------------------|
g------3------3-----------------------|
d--4---3---6---3----------------------|
a--4---1---6---1----------------------|
E--6-------4--------------------------|

Chorus
e-----------------------------------|
b-----------------------------------|
g--5---8---3-------3----------------| x2
d--5---8---3---4---3----------------|
a--3---6---1---4---1----------------|
E--------------6--------------------|

Solo
e---------------------------------------------|
b-------11brb------------11brb----8-----------|
g-9brb-----------9brb------------10b~-8h10----|
d---------------------------------------------|
a---------------------------------------------|
E---------------------------------------------|

e---------------------------------------|
b---------------------------------------|
g---------------------------------------|
d---------6-8--6h8/10-6-8-10brb---------|
a-----6-8-------------------------------|
E-6-8-----------------------------------|

e-------------------------------------------------|
b------------(14brb)------------------------------|
g---------------------------3-----3---------------|
d--44------44---------------3--6--3---------------|
a--44------44---------------1--6--1---------------|
E--22-7/0--22------------------4------------------|


Chorus
e-----------------------------------|
b-----------------------------------|
g--5---8---3-------3----------------| x2
d--5---8---3---4---3----------------|
a--3---6---1---4---1----------------|
E--------------6--------------------|

outro
e-----------------------------------------------------------------|
b----11/13--11--8-----11/13--11-------11/13--11--8----------------|
g--------------------------------8-----------------8-10brb-8-10---|
d-----------------------------------------------------------------|
a-----------------------------------------------------------------|
E-----------------------------------------------------------------|


e-------------------------------------------------------------------|
b----11/13--11--8-----11/13--11-------11/13--11--8------------------|
g--------------------------------8-----------------8-10brb-8~~-10---|
d-------------------------------------------------------------------|
a-------------------------------------------------------------------|
E-------------------------------------------------------------------|

e-------------------------------8-------8----8---8----------------------|
b-----------------------------8---8--11b--11b--11b-11b~~----------------|
g--------------------8h10-10b-------------------------------------------|
d--5-7-9p7-9p7-X3-------------------------------------------------------|
a-----------------------------------------------------------------------|
E-----------------------------------------------------------------------|

e---------------------------------------------------------------|
b--11-----------------------------------------------------------|
g--10b-8-X4-----------------------------------------------------|
d------------10---8-----------------8---------------------------|
a--------------------10-8--------------------------------13-13--|
E-------------------------11-8~-6b~-----11-11-13brbp11-X3-------|
Tap to rate this tab
 
# A B C D E F G H I J K L M N O P Q R S T U V W X Y Z