Song name
# A B C D E F G H I J K L M N O P Q R S T U V W X Y Z

Jason Aldean - Laughed Until We Cried tab

I think this is for the most part right. might be a few mistakes, but it works for me.
No capo Standard tuning

INTRO
-------------------------------------------------------------|
-------------------------------------------------------------|
-------------------------------------------------------------|
--7h9p7h9---7~h9p7h9--7h9p7h9---7~h9p7h9-7h9/10/9--7h9/10/9--|
---------7/5-----------------7/5-----------------10--------7-|
-------------------------------------------------------------|

SOLO
----------------------------------------------------------------------------|
----------------------------------------------------------------------------|
---------------------------------------------------------5/12h14-14b16------|
---------12/14/12-10p9-10p9------------------9-7-5-7--5h7-------------------|
-----8h10------------------10-10h12-5--5-7-10-------------------------------|
-8h10-----------------------------------------------------------------------|

-----------------------------|
-----------------------------|
-14h16-12p11-12p11-7---------|
-----------------------------|
-----------------------------|
-----------------------------|
-----------------------------|

OUTRO - same as intro

email me at hulanic@gmail.com for corrections
Tap to rate this tab
 
# A B C D E F G H I J K L M N O P Q R S T U V W X Y Z