Song name
# A B C D E F G H I J K L M N O P Q R S T U V W X Y Z

Jason Aldean - Dirt Road Anthem tab

Throughout the song the chords definatly sound better with capo on 2 and the chords 
being Am C F C.
Im just tabbing out the guitar in the background during the rap parts.
the tabs are in relation to the capo on 2

First Verse do this 2x
---------------------------------|
---------------------------------|
---------------------------------|
-10-9-----10-9----10-9-----------|
------10-------7-------10--7-5-3-|
---------------------------------|

Second verse is a little different
-------------------------------------------------|
-------------------------------------------------|
-------------------------------------------------|
-10-9-----10-9----10-9------------10-9-----------|
------10-------7-------10--7-5-3-------10--7-5-3-|
-------------------------------------------------|
Tap to rate this tab
 
# A B C D E F G H I J K L M N O P Q R S T U V W X Y Z