Song name
# A B C D E F G H I J K L M N O P Q R S T U V W X Y Z

Jason Aldean - My Kinda Party tab

-------------------------------------------------------------------------------
			     My Kinda Party - Jason Aldean 
-------------------------------------------------------------------------------
Tabbed by:  I love Bobby Brown

I dedicate this to my long lost brother Kevin. You will forever be in my heart.
Amen.


Lead Guitar
e|---------------------------------------------------------------------------|
B|----11/13--11--8~~~~~------11/13--11---------------11/13--11---------------|
G|--------------------------------------8~~~~~-------------------10~~~-------|
D|---------------------------------------------------------------------------|
A|---------------------------------------------------------------------------|
E|---------------------------------------------------------------------------|
                                                                             |
e|---------------------------------------------------------------------------|
B|---------------------------------------------------------------------------|
G|---8--10--10b-12-r10--8--8h10----------------------------------------------|
D|---------------------------------------------------------------------------|
A|---------------------------------------------------------------------------|
E|---------------------------------------------------------------------------|
                                                                             |
Second Guitar                                                                |
e|---------------------------------------------------------------------------|
B|---------------------------------------------------------------------------|
G|--(5)-----------------------(8)--------------------(3)---------------------|
D|--(5)-----------------------(8)--------------------(3)---------------------|
A|--(3)-----------------------(6)--------------------(1)---------------------|
E|---------------------------------------------------------------------------|
                                                                             |
e|---------------------------------------------------------------------------|
B|---------------------------------------------------------------------------|
G|---------------------------------------------------------------------------|
D|--(6)---------------------(8)----------------------------------------------|
A|--(6)---------------------(8)----------------------------------------------|
E|--(4)---------------------(6)----------------------------------------------|







Lead Guitar
e|---------------------------------------------------------------------------|
B|----11/13--11--8~~~~~------11/13--11---------------11/13--11---------------|
G|--------------------------------------8~~~~~-------------------10~~~-------|
D|---------------------------------------------------------------------------|
A|---------------------------------------------------------------------------|
E|---------------------------------------------------------------------------|
                                                                             |
e|---------------------------------------------------------------------------|
B|---------------------------------------------------------------------------|
G|---8--10--10b-12-r10--8--8h10----------------------------------------------|
D|---------------------------------------------------------------------------|
A|---------------------------------------------------------------------------|
E|---------------------------------------------------------------------------|
                                                                             |
Second Guitar                                                                |
e|---------------------------------------------------------------------------|
B|---------------------------------------------------------------------------|
G|--(5)-----------------------(8)--------------------(3)---------------------|
D|--(5)-----------------------(8)--------------------(3)---------------------|
A|--(3)-----------------------(6)--------------------(1)---------------------|
E|---------------------------------------------------------------------------|
                                                                             |
e|---------------------------------------------------------------------------|
B|---------------------------------------------------------------------------|
G|---------------------------------------------------------------------------|
D|--(6)---------------------(8)----------------------------------------------|
A|--(6)---------------------(8)----------------------------------------------|
E|--(4)---------------------(6)----------------------------------------------|





Verse
Palm Muted Guitar (quite)
e|---------------------------------------------------------------------------|
B|---------------------------------------------------------------------------|
G|--(5)-----------------------(8)--------------------(3)---------------------|
D|--(5)-----------------------(8)--------------------(3)---------------------|
A|--(3)-----------------------(6)--------------------(1)---------------------|
E|---------------------------------------------------------------------------|
     1  +  2  +  3  +  4  +   1  +  2  +  3  +  4  +  1  +  2  +  3  +  4  +                   
e|---------------------------------------------------------------------------|
B|---------------------------------------------------------------------------|
G|---------------------------------------------------------------------------|
D|--(6)---------------------(8)-----/-----\----------------------------------|
A|--(6)---------------------(8)-----/-----\----------------------------------|
E|--(4)---------------------(6)-----/-----\----------------------------------|
     1    +    2   +         3   +   4   +


e|---------------------------------------------------------------------------|
B|---------------------------------------------------------------------------|
G|--(5)-----------------------(8)--------------------(3)---------------------|
D|--(5)-----------------------(8)--------------------(3)---------------------|
A|--(3)-----------------------(6)--------------------(1)---------------------|
E|---------------------------------------------------------------------------|
     1  +  2  +  3  +  4  +   1  +  2  +  3  +  4  +  1  +  2  +  3  +  4  +                   
e|---------------------------------------------------------------------------|
B|---------------------------------------------------------------------------|
G|---------------------------------------------------------------------------|
D|--(6)---------------------(8)----------------------------------------------|
A|--(6)---------------------(8)----------------------------------------------|
E|--(4)---------------------(6)----------------------------------------------|
     1    +    2   +         3   +   4   +







Pre-Chorus                                                   (build up)
e|---------------------------------------------------------------------------|
B|---------------------------------------------------------------------------|
G|---------------------------------------------------------------------------|
D|---(6)----------------(8)----------------(6)---------------(8)-------------|
A|---(6)----------------(8)----------------(6)---------------(8)-------------|
E|---(4)----------------(6)----------------(4)---------------(4)-------------|
     1 + 2 + 3 + 4 +    1 + 2 + 3 + 4 +    1 + 2 + 3 + 4 +   1 + 2 + 3 + 4 +






Chorus 

e|---------------------------------------------------------------------------|
B|---------------------------------------------------------------------------|
G|--(5)-----------------------(8)--------------------(3)---------------------|
D|--(5)-----------------------(8)--------------------(3)---------------------|
A|--(3)-----------------------(6)--------------------(1)---------------------|
E|---------------------------------------------------------------------------|
     1  +  2  +  3  +  4  +   1  +  2  +  3  +  4  +  1  +  2  +  3  +  4  +                   
e|---------------------------------------------------------------------------|
B|---------------------------------------------------------------------------|
G|---------------------------------------------------------------------------|
D|--(6)---------------------(8)----------------------------------------------|
A|--(6)---------------------(8)----------------------------------------------|
E|--(4)---------------------(6)----------------------------------------------|
     1    +    2   +         3   +   4   +


Chorus (Second time)

e|---------------------------------------------------------------------------|
B|---------------------------------------------------------------------------|
G|--(5)-----------------------(8)--------------------(3)---------------------|
D|--(5)-----------------------(8)--------------------(3)---------------------|
A|--(3)-----------------------(6)--------------------(1)---------------------|
E|---------------------------------------------------------------------------|
     1  +  2  +  3  +  4  +   1  +  2  +  3  +  4  +  1  +  2  +  3  +  4  +                   
e|---------------------------------------------------------------------------|
B|---------------------------------------------------------------------------|
G|---------------------------------------------------------------------------|
D|--(6)---------------------(8)----------------------------------------------|
A|--(6)---------------------(8)----------------------------------------------|
E|--(4)---------------------(6)----------------------------------------------|
     1    +    2   +         3   +   4   +





Instrumental
Lead Guitar
e|---------------------------------------------------------------------------|
B|----11/13--11--8~~~~~------11/13--11---------------11/13--11---------------|
G|--------------------------------------8~~~~~-------------------10~~~-------|
D|---------------------------------------------------------------------------|
A|---------------------------------------------------------------------------|
E|---------------------------------------------------------------------------|
                                                                             |
e|---------------------------------------------------------------------------|
B|---------------------------------------------------------------------------|
G|---8--10--10b-12-r10--8--8h10----------------------------------------------|
D|---------------------------------------------------------------------------|
A|---------------------------------------------------------------------------|
E|---------------------------------------------------------------------------|
                                                                             |
Second Guitar                                                                |
e|---------------------------------------------------------------------------|
B|---------------------------------------------------------------------------|
G|--(5)-----------------------(8)--------------------(3)---------------------|
D|--(5)-----------------------(8)--------------------(3)---------------------|
A|--(3)-----------------------(6)--------------------(1)---------------------|
E|---------------------------------------------------------------------------|
                                                                             |
e|---------------------------------------------------------------------------|
B|---------------------------------------------------------------------------|
G|---------------------------------------------------------------------------|
D|--(6)---------------------(8)----------------------------------------------|
A|--(6)---------------------(8)----------------------------------------------|
E|--(4)---------------------(6)----------------------------------------------|


Then....

Verse
Pre-chorus
Chorus 2x
Instrumental
Chorus (Broken up instruments)
Chorus 
Intro (only lead) 2x
Instrumental/solo (fades to ending)




************************************

| /   slide up
| \   slide down
| h   hammer-on
| p   pull-off
| ~   vibrato
| +   harmonic
| x   Mute note
| b   Bend
| pb  Pre-bend
| r   Bend release
| pbr Pre-bend release
| brb Bend release bend

************************************
Tap to rate this tab
 
# A B C D E F G H I J K L M N O P Q R S T U V W X Y Z